Log in

One click and you are in

Login with Facebook Login with Google

Why sign up and log in

Guitar Tabs Explorer
Miller Steve Band bass tabs for Stuck in the middle with you

Stuck In The Middle With You bass tab by Miller Steve Band

Miller Steve Band bass tabs for Stuck in the middle with you

Bass tabs

INTRO:             (x3)
|---------------|-------------------|-----------------|
|---0-----------|*-0-0-------------*|-0---0-----------|
|-r---.---0-2-0-|*-----------0-2-0-*|-------3---0-2-0-|
|-----2-2-------|--------2-2--------|---------2-------|

VERSE:              (x2)
|-------------------|-----------------|-0-0-------------|
|*-0-0-------------*|-0---0-----------|-----------0-2-0-|
|*-----------0-2-0-*|-------3---0-2-0-|-------2-2-------|
|--------2-2--------|---------2-------|-----------------|

|-0-0-------------|-----------------|-----------------|
|---------5-------|-0-0-------------|-0---0-----------|
|-------5---0-2-0-|-----------0-7-0-|-------3---0-2-0-|
|-----------------|-------2-2-------|---------2-------|


|-------------|-----------------|
|-------------|-----2-4/5-------|
|-----4-7-5-4-|-3-----------2-3-|
|-5-5---------|-----------3-----|


CHORUS:               (x3)
|-------------------|-------------------|-0-0-------------|
|*-0-0-------------*|*-0---0-----------*|-----------0-2-0-|
|*-------------2---*|*-------3---0-2-0-*|-------2-2-------|
|--------2-2-0---0--|----------2--------|-----------------|


|-0-0-------------|-----------------|-----------------|
|---------5-------|-0-0-------------|-0---0-----------|
|-------5---0-2-0-|-----------0-7-0-|-------3---0-2-0-|
|-----------------|-------2-2-------|---------2-------|

|-------------|-----------------|-----------------|
|-------------|-----2-4/5-------|-0-0-------------|
|-----4-7-5-4-|-3-----------2-3-|-----------0-2-0-|
|-5-5---------|-----------3-----|-------2-2-------|
 1 2 3 & 4 &  1 & 2 & 3 & 4 &  1 2 & a 3 & 4 &

|-----------------|
|-0---0-----------|
|-------3---0-2-0-|
|---------2-------|


INTERLUDE:
|-----------------|-----------------|-----------------|
|-5-5-5-5-5-5-5-4-|-5-5-5-5-5-5-5-5-|-0-0-------------|
|-----------------|-----------------|-----------0-2-0-|
|-----------------|-----------------|-------2-2-------|

|-----------------|-----------------|-----------------|
|-0---0-----------|-5-5-5-5-5-5-5-4-|-5-5-5-5-5-5-5-5-|
|-------3---0-2-0-|-----------------|-----------------|
|---------2-------|-----------------|-----------------|


|-------------|------------|------------|-------------|
|-------------|------------|------------|-------------|
|-5---5----5--|-5---5----5-|-5---5----5-|-5----5---5--|
|-------------|------------|------------|-------------|


Bridge (Chorus-Verse)       (x2)
|-------------------|-----------------|
|*-0-0-------------*|-0---0-----------|
|*-----------0-2-0-*|-------3---0-2-0-|
|--------2-2--------|---------2-------|


END:               (x4)
|------------------|------------------|---------|
|*-0-0-------------|-0---0-----------*|-0-0-----|
|*-----------0-2-0-|-------3---0-2-0-*|---------|
|--------2-2-------|---------2--------|---------|

Almost there ...

Sign in to get your own page with links to favourite songs and more. You are just one click away...

Login with Facebook Login with Google