Log in

One click and you are in

Login with Facebook Login with Google

Why sign up and log in

Guitar Tabs Explorer
Miller Steve Band tabs for Journey from eden

Guitar tabs

Journey From Eden - Steve Miller Band

>From the "Anthology" album.  A chord diagramA augmentedA classic album - I Wish someone would tackle
"Going to Mexico", "Kow Kow", or any earlier Steve Miller songs.

Tabbed by David Harrison dharrisonz@adelphia.net

I have only tabbed the little acoustic riffs at the end of each phrase, and
there are slight variations throughout the song.

Standard Tuning

... sadly sing ...
--------------
--------------
-5b7~-3-5p3---
------------5-
--------------
--------------

For you ...
-------------
-----6-------
-5b7---5b6r5-
-------------
-------------
-------------

For me ...
--------------------
--------------------
-5b6r5-3-------3----
---------5-3-5---5~-
--------------------
--------------------

... pointless suffering ...
-----------------------
-----------------------
-5b7-5-3-5-3-------5---
-------------5-3-5---5-
-----------------------
-----------------------

Hu man ...
---------------
---------------
-3b4-----------
-----5-3---3---
---------5---5-
---------------

ity ...
-no ring----
------------
---3-3b-3---
-5--------5-
------------
------------

(little solo)
----------------------|---------------------------
-----6-6-6-6h8p6---8~-|-6b8r6-3-------------------
-5s7-------------7----|---------5-3-5-3-----------
----------------------|-----------------5-3---3---
----------------------|---------------------5---5-
----------------------|---------------------------

Woh oh oh ...
-------------------
-------------------
-5b7r5-3-------3---
---------5-3-5---5-
-------------------
-------------------

I am dreaming ...
...
...
To the Light ...
-----------------
-----------------
-----0-------0--- This part very quiet - I am not sure it is correct
-------0-------0-
---5-------5-----
-6-------5-------

------------------
------------------
-5b6r5-3---3-3h5--
---------5--------
------------------
------------------

Woh oh ... To the light ...
---------------
---------------
-5b6r5-3-------
---------5-3-5-
---------------
---------------

She is standing ...
...
...
through the night ...
--------------------------------
--------------------------------
----------------5b6r5-3---3-3h5-
------------------------5-------
--------------------------------
-0-1-3-6-1-3-5------------------

Woh oh ... through the night ...
--------------------
--------------------
-5b6r5-3-------3----
---------5-3-5----5-
--------------------
--------------------

... sadly sing ...
--------------------
--------------------
----3~--3-5-3-5b6-3
-3/5--5-------------
--------------------
--------------------

For you ...
---------
---------
-5b6b6-5-
---------
---------
---------

For me ...
-------------------
-------------------
-5b6r5-3-------3---
---------5-3-5---5-
-------------------
-------------------

... pointless suffering ...
-------------------------------
-------------------------------
-5b6r5-3-5-3---3-5b6-5b6-3h5-3-
-------------5-----------------
-------------------------------
-------------------------------

Hu-mann ...
-----------------------
-------6-----6---------
-5/6b7---6b7---6b7r6-5-
-----------------------
-----------------------
-----------------------

ity ...
-------------------
-------------------
-5b6r5-3-------3---
---------5-3-5---5-
-------------------
-------------------

(Little solo)
----------------------
-----6-6-6-6h8-6---8~-
-5/7-------------7----
----------------------
----------------------
----------------------

--------------------------------------
-6b7-3--------------------------------
-------5-3-5-3-----------OR-5-3---3--- not sure about this part
---------------5-3-5-3----------5---5-
-----------------------5--------------
--------------------------------------

To the people ...
...
...
...
Through the ...
---------5/6--------------------
-----6-6-8/11-8-8b10r8~-8-6-----
-3/5------------------------5-3-
--------------------------------
--------------------------------
--------------------------------

To the leaders ...
...
...
...
Seeking Praise ...
-----------------------------
-----6-8-10b11r10-8-10b11r10-
-5/7-------------------------
-----------------------------
-----------------------------
-----------------------------

Woh oh ... seeking praise ...
---------------------------------------
-------------------------------3-------
5b6r5~-5b6r5~-5b6r5~-3-3h5-3-5---5-3-5-
---------------------------------------
---------------------------------------
---------------------------------------

Listen to ...
---------------------------
---------------------------
5b6r5 3-5-3-----3h5p3-5b-3-
------------5-3------------
---------------------------
---------------------------

For you ...
-----------------------
-------6-----6---------
-5/6b7---6b7---6b7r6/5-
-----------------------
-----------------------
-----------------------

For me ...
-----------------------------
-----------------------------
-6/7b8-7b8-7b8r7-6p5-3-5p3---
---------------------------5-
-----------------------------
-----------------------------

Almost there ...

Sign in to get your own page with links to favourite songs and more. You are just one click away...

Login with Facebook Login with Google