Log in

One click and you are in

Login with Facebook Login with Google

Why sign up and log in

Guitar Tabs Explorer
Steve Miller tabs for The stake

Guitar tabs

From bershack@ptel.net Thu May  8 17:31:36 1997

Steve Miller Band
The Stake
Tabbed by: Brandon Ankeny
I can only figure out 2 riffs from this song.


Riff 1 - played over and over in the intro
e-|--------------------------------|
B-|--------------------------------|
G-|--------------------------------|
D-|-----13--13--13--15----13-12----|
A-|--15---15--15-------------------|
E-|--------------------------------|


Riff 2 - Nobody loves you  ...
e-|------------------------------|
B-|------------------------------|
G-|---------13-------------------|
D-|----13-15--15--13-------------|
A-|--15-------------15-13-15-----|
E-|--------------------------13--|

also sounds good at

e-|---------------------------|
B-|---------------------------|
G-|---------1-----------------|
D-|----1--3---3----1----------|
A-|--3---------------3-1-3----|
E-|------------------------1--|


Can anyone figure out the Solo?

Brandon Ankeny
bershack@ptel.net

Almost there ...

Sign in to get your own page with links to favourite songs and more. You are just one click away...

Login with Facebook Login with Google