Log in

One click and you are in

Login with Facebook Login with Google

Why sign up and log in

Guitar Tabs Explorer
Steve Miller tabs for Space cowboy

Guitar tabs

Authour:Miller Steve
Album:Best Of 1968-1973
Tabbed by: thinkmaster (thinkmaster@hotmail.com)


Riff 1:

E-|-----------------
B-|-----------------
G-|-----------------
D-|----------------2
A-|----------0-0-4--
E-|--0-0-3-4--------
Riff 2:

E-|-------------
B-|-------------
G-|-------------
D-|------------2
A-|------2-0-4--
E-|--0-4--------

Chord 1:

E-|-----------
B-|-----------
G-|-----------
D-|--0-0---0-0
A-|--2-2---2-2
E-|--0-0---0-0


Verse 1:

Riff 1
I told you 'bout living ...

Riff 1
Don't you know that I'm a ...

Riff 1
Let me tell you people that I ...

Riff 1
And I'm tired of all ...

Riff 1
And the same old story with ...

Riff 1
About the good and the ...

Riff 1
And the times ...

Riff 1
So I'm ...

Riff 1
Of every fat cat who ...


CHORUS:

I'm a ..

Bet you weren't ...

I'm a ...

I'm sure you ...
                          Riff 1     Riff 2     Chord 1
Yeah, yeah, ...


Verse 2:

I was born on this ....


CHORUS


Verse 3:

I see the show downs, slow downs....


CHORUS

Other versions of Space Cowboy

Space cowboyChords

Almost there ...

Sign in to get your own page with links to favourite songs and more. You are just one click away...

Login with Facebook Login with Google