Fly Like An Eagle by Steve Miller

Fly Like An Eagle tab by Steve Miller

Guitar tabs

Fly Like an Eagle
Steve Miller Band
Transcribed by Adam Lane
=0D
This is a pretty crappy transcription. The chords for the chorus are
pretty good. I think the intro is right too, but there's really no guitar=

to speak of during the verse, so that part is how Mr. Miller played it on=
 =

Don Kershner's rock concert in the 70's which I saw on VH1 a few weeks ag=
o. =

Hope it gives you some idea. And if you have anything better or any othe=
r
Steve Miller tunes, please post them.
=0D
Intro: I think this plays twice
e---------------------------------------------e
B---------------------------------------------B
G---------5-5--------7-5--------5-5--------5--G
D-------7-5-5--------7-5------7-5-5--------5--D
A---7h8--------7h8h7------7h8--------7h8p7----A
E---------------------------------------------E
=0D
Like I said, I don't think this is on the album version. I tried to show=

the rythm, but it didn't work, so just play with these notes or something=

Verse:(Time keeps on slippin'...)
e------------------------------------------e
B--------------------------------------1---B
G---2---2-0--2-2-2-0---2---0---2---0h2-----G
D------------------------------------------D
A------------------------------------------A
E------------------------------------------E
  time...on slippin      into the future
=0D
Now the easy part, even though this is organ, these are the chords.
Chorus
    Am     D  F    Am
I wanna fly like an ...
    Am     D      F      Am
I wanna fly like an eagle let my ...
=0D
hopefully you can do something with this crappy tab. And like I said,
if you have any more Steve Miller or a correction of this, please post
it.

--PART.BOUNDARY.0.24876.emout04.mail.aol.com.819466062--

Find guitar tabs and chords

A B C D E F G H I J K L M N O P Q R S T U V W X Y Z #