Log in

One click and you are in

Login with Facebook Login with Google

Why sign up and log in

Guitar Tabs Explorer
Mac Miller guitar tabs for Surf

Guitar tabs with lyrics

Tuning: Standard (E A D G B E)

Chords Used

e|---4---9----7--------------------------------------------------------------|
B|---5---10---7---12---------------------------------------------------------|
G|---6---11---8---13---------------------------------------------------------|
D|---6---11---9---14---------------------------------------------------------|
A|---4---9----9---14---------------------------------------------------------|
E|------------7---12---------------------------------------------------------|


Intro:

e|-----4----9-----7-----------------4----9-----7-----------------------------|
B|-----5----10----7-----12----------5----10----7-----12----------------------|
G|-----6----11----8-----13----------6----11----8-----13----------------------|
D|-----6----11----9-----14----------6----11----9-----14----------------------|
A|---4----9-------9-----14--------4----9-------9-----14----------------------|
E|--------------7----12------11--------------7----12------11-----------------|

Yeah, yeah

Hey, hey, hey

Hey, hey, hey

Hey, hey, hey

Hey, hey

Said


Verse 1:

e|-----4----9-----7-----------------4----9-----7-----------------------------|
B|-----5----10----7-----12----------5----10----7-----------------------------|
G|-----6----11----8-----13----------6----11----8-----------------------------|
D|-----6----11----9-----14----------6----11----9-----------------------------|
A|---4----9-------9-----14--------4----9-------9-----14---14-----------------|
E|--------------7----12------11--------------7----12----11-------------------|
Where are you goin'? Can I come too?

The whole world is open, a playground for me and you


e|-----4----9-----7-----------------4----9-----7-----------------------------|
B|-----5----10----7-----12----------5----10----7-----------------------------|
G|-----6----11----8-----13----------6----11----8-----13----------------------|
D|-----6----11----9-----14----------6----11----9-----14----------------------|
A|---4----9-------9-----14--------4----9-------9-----14----------------------|
E|--------------7----12------11--------------7----12----11-------------------|
And we could be fine, shit, who the hell knows?

It's your eyes and your ears and your mouth and your nose

Head and your shoulders, your knees and your toes


e|-----4----9-----7-----------------4----9-----7-----------------------------|
B|-----5----10----7-----12----------5----10----7-----------------------------|
G|-----6----11----8-----13----------6----11----8-----13----------------------|
D|-----6----11----9-----14----------6----11----9-----14----------------------|
A|---4----9-------9-----14--------4----9-------9-----14----------------------|
E|--------------7----12------11--------------7----12----11-------------------|
I dream of this moment

Will it come true?

The whole world, they know it

They just waitin' for me and you


e|-----4----9-----7-----------------4----9-----7-----------------------------|
B|-----5----10----7-----12----------5----10----7-----------------------------|
G|-----6----11----8-----13----------6----11----8-----13----------------------|
D|-----6----11----9-----14----------6----11----9-----14----------------------|
A|---4----9-------9-----14--------4----9-------9-----14----------------------|
E|--------------7----12------11--------------7----12----11-------------------|
And she, just like I

Got her head in the clouds

Don't need to be lower

Before it's all over, I promise we'll figure it out


e|-----4----9-----7-----------------4----9-----7-----------------------------|
B|-----5----10----7-----12----------5----10----7-----------------------------|
G|-----6----11----8-----13----------6----11----8-----13----------------------|
D|-----6----11----9-----14----------6----11----9-----14----------------------|
A|---4----9-------9-----14--------4----9-------9-----14----------------------|
E|--------------7----12------11--------------7----12----11-------------------|
I ain't comin' down

Why would I need to?

So much of this world is above us, baby

They might tell you that I went crazy


e|-----4----9-----7-----------------4----9-----7-----------------------------|
B|-----5----10----7-----12----------5----10----7-----------------------------|
G|-----6----11----8-----13----------6----11----8-----13----------------------|
D|-----6----11----9-----14----------6----11----9-----14----------------------|
A|---4----9-------9-----14--------4----9-------9-----14----------------------|
E|--------------7----12------11--------------7----12----11-------------------|
I'm just tryna read you

Ooh, ooh, oohh


e|-----4----9-----7-----------------4----9-----7-----------------------------|
B|-----5----10----7-----12----------5----10----7-----------------------------|
G|-----6----11----8-----13----------6----11----8-----13----------------------|
D|-----6----11----9-----14----------6----11----9-----14----------------------|
A|---4----9-------9-----14--------4----9-------9-----14----------------------|
E|--------------7----12------11--------------7----12----11-------------------|
Ooh-ooh-oohh


Chorus:

e|-----4----9-----7-----------------4----9-----7-----------------------------|
B|-----5----10----7-----12----------5----10----7-----------------------------|
G|-----6----11----8-----13----------6----11----8-----13----------------------|
D|-----6----11----9-----14----------6----11----9-----14----------------------|
A|---4----9-------9-----14--------4----9-------9-----14----------------------|
E|--------------7----12------11--------------7----12----11-------------------|
I know we try

And the days, they go by

Until we get old

There's water in the flowers, let's grow


e|-----4----9-----7-----------------4----9-----7-----------------------------|
B|-----5----10----7-----12----------5----10----7-----------------------------|
G|-----6----11----8-----13----------6----11----8-----13----------------------|
D|-----6----11----9-----14----------6----11----9-----14----------------------|
A|---4----9-------9-----14--------4----9-------9-----14----------------------|
E|--------------7----12------11--------------7----12----11-------------------|
People, they lie

But hey, so do I

Until it gets old

There's water in the flowers, let's grow


Post-Chorus:/Solo:

e|-----4----9-----7-----------------4----9-----7-----------------------------|
B|-----5----10----7-----12----------5----10----7-----------------------------|
G|-----6----11----8-----13----------6----11----8-----13----------------------|
D|-----6----11----9-----14----------6----11----9-----14----------------------|
A|---4----9-------9-----14--------4----9-------9-----14----------------------|
E|--------------7----12------11--------------7----12----11-------------------|
Let it go, let it be

We're all we need today

e|-----4----9-----7-----------------4----9-----7-----------------------------|
B|-----5----10----7-----12----------5----10----7-----------------------------|
G|-----6----11----8-----13----------6----11----8-----13----------------------|
D|-----6----11----9-----14----------6----11----9-----14----------------------|
A|---4----9-------9-----14--------4----9-------9-----14----------------------|
E|--------------7----12------11--------------7----12----11-------------------|
Let it go, let it be

Mmm, mmm, mmm, mmm


Solo:
e|---------------------------------------------------------------------------------|
B|---------------------------------------------------------------------------------|
G|---------------------------------------------------------------------------------|
D|------------------------------------------11--9----------------------------------|
A|---------7--9/11~\9----------7--9/11~\9----------11--9/11~\9-------7--9/11~\9----|
E|---7--9----------------7--9-----------------------------------7--9---------------|


Verse 2:

e|-----4----9-----7-----------------4----9-----7-----------------------------|
B|-----5----10----7-----12----------5----10----7-----------------------------|
G|-----6----11----8-----13----------6----11----8-----13----------------------|
D|-----6----11----9-----14----------6----11----9-----14----------------------|
A|---4----9-------9-----14--------4----9-------9-----14----------------------|
E|--------------7----12------11--------------7----12----11-------------------|
Yeah, well

Sometimes I get lonely

Not when I'm alone

But it's more when I'm standin' in crowds

That I'm feelin' the most on my own


e|-----4----9-----7-----------------4----9-----7-----------------------------|
B|-----5----10----7-----12----------5----10----7-----------------------------|
G|-----6----11----8-----13----------6----11----8-----13----------------------|
D|-----6----11----9-----14----------6----11----9-----14----------------------|
A|---4----9-------9-----14--------4----9-------9-----14----------------------|
E|--------------7----12------11--------------7----12----11-------------------|
And I know that somebody knows me

I know somewhere there's home

I'm startin' to see that all I have to do is get up and go


Bridge:

e|-----4----9-----7-----------------4----9-----7-----------------------------|
B|-----5----10----7-----12----------5----10----7-----------------------------|
G|-----6----11----8-----13----------6----11----8-----13----------------------|
D|-----6----11----9-----14----------6----11----9-----14----------------------|
A|---4----9-------9-----14--------4----9-------9-----14----------------------|
E|--------------7----12------11--------------7----12----11-------------------|
Goin', goin', goin' before I'm gone

Gotta get goin', goin', goin' before I'm gone


Chorus:

e|-----4----9-----7-----------------4----9-----7-----------------------------|
B|-----5----10----7-----12----------5----10----7-----------------------------|
G|-----6----11----8-----13----------6----11----8-----13----------------------|
D|-----6----11----9-----14----------6----11----9-----14----------------------|
A|---4----9-------9-----14--------4----9-------9-----14----------------------|
E|--------------7----12------11--------------7----12----11-------------------|
Ayy, and I know we try

Days, they go by

Until we get old

There's water in the flowers, let's grow


e|-----4----9-----7-----------------4----9-----7-----------------------------|
B|-----5----10----7-----12----------5----10----7-----------------------------|
G|-----6----11----8-----13----------6----11----8-----13----------------------|
D|-----6----11----9-----14----------6----11----9-----14----------------------|
A|---4----9-------9-----14--------4----9-------9-----14----------------------|
E|--------------7----12------11--------------7----12----11-------------------|
People, they lie

But hey, so do I

Until it gets old

There's water in the flowers, let's grow


Instrumental Outro:


e|-----4----9-----7-----------------4----9-----7-----------------------------|
B|-----5----10----7-----12----------5----10----7-----------------------------|
G|-----6----11----8-----13----------6----11----8-----13----------------------|
D|-----6----11----9-----14----------6----11----9-----14----------------------|
A|---4----9-------9-----14--------4----9-------9-----14----------------------|
E|--------------7----12------11--------------7----12----11-------------------|


************************************

| /   Slide up
| \   Slide down
| ~   Vibrato

************************************

Other versions of Surf

SurfChords

Almost there ...

Sign in to get your own page with links to favourite songs and more. You are just one click away...

Login with Facebook Login with Google