Log in

One click and you are in

Login with Facebook Login with Google

Why sign up and log in

Guitar Tabs Explorer
Mac Miller bass tabs for Surf

Bass tabs

Tuning: Standard (E A D G)

G|----2-2-2-1-1-1-1---------1---|
D|------------------4-4-4-4---4-|
A|------------------------------|
E|------------------------------|

G|----------------------------|
D|-2-----------------------2-4|
A|-------4--------------------|
E|----------------------------|
G|-1----2-1--------------------------------|
D|----------4---2-----2--------------------|
A|-----------------------------------------|
E|-----------------------------------------|

G|---2-4-----1-2-----1---------------------|
D|-----------------4-----------------------|
A|-----------------------------------------|
E|-----------------------------------------|

G|--2-4---1-2------------------------------|
D|-------------2-4----2---4----------------|
A|----------------------------2------------|
E|-----------------------------------------|

G|-1----2-(2)---4---4-----1----------------|
D|-----------------------------4--(4)------|
A|-----------------------------------------|
E|-----------------------------------------|

G|-----------------------------------------|
D|---4-2---2-4-----------------------------|
A|-------2--------2---(2)------------------|
E|-----------------------------------------|

G|---------------1-------------------------|
D|---4----2--------------------------------|
A|-------------------2---------------------|
E|-----------------------------------------|

G|---------------1-------------------------|
D|---4----2--------------------------------|
A|-------------------2---------------------|
E|-----------------------------------------|

G|-------1-1----2----4---2--(2)------------|
D|--4--------------------------------------|
A|-----------------------------------------|
E|-----------------------------------------|

G|--1-2---1--------------------------------|
D|------4---4-2-2---(2)--------------------|
A|-----------------------------------------|
E|-----------------------------------------|

G|-----------1-1---------------------------|
D|--4----2--------2------------------------|
A|-----------------------------------------|
E|-----------------------------------------|

G|---------------1-------------------------|
D|--4-4-2-----4----------------------------|
A|-------------------2---------------------|
E|-----------------------------------------|

G|-1---2-------4----6--4-------------------|
D|-----------------------------------------|
A|-----------------------------------------|
E|-----------------------------------------|

G|---2-4-1-1-2--------------8-8-8-|
D|-------------4---2----(2)-------|
A|--------------------------------|
E|--------------------------------|

G|-8-6-6-6-6\4-4-4-4----6------------------|
D|-----------------------------------------|
A|-----------------------------------------|
E|-----------------------------------------|

G|---6----2---6-8--4-----------------------|
D|-----------------------------------------|
A|-----------------------------------------|
E|-----------------------------------------|

G|--6----4-----8-----2----1----------------|
D|-----------------------------------------|
A|-----------------------------------------|
E|-----------------------------------------|

G|-----------2-----------------------------|
D|----4-----------2----2-------------------|
A|-----------------------------------------|
E|-----------------------------------------|


************************************

| (n) Ghost note
| \  Slide down

************************************

Almost there ...

Sign in to get your own page with links to favourite songs and more. You are just one click away...

Login with Facebook Login with Google