Log in

One click and you are in

Login with Facebook Login with Google

Why sign up and log in

Guitar Tabs Explorer
Mac Miller bass tabs for My favorite part

Bass tabs

Tuning: Standard (E A D G)


(intro)

G|----------------------------------------------------|
D|-----------------4—----3-----3--3-----------8-------|
A|-------------------------------------------------4-6|
E|--2/11~----6-4-4----2-2—----1--1----------—6--6-6---|
G|----------------------------------------------------|
D|-----------------4—----3-----3--3-------------------|
A|-------------------------------------------------4-6|
E|--------7~-6-4-4----2-2—----1--1---------—6-6-6-6---|

(main)

G|----------------------------------------------------|
D|-----------------4—----3-----3--3-------------------|
A|-------------------------------------------------4-6|
E|--------7~-6-4-4----2-2—----1--1---------—6-6-6-6---| x4()

(pause .. who you really are)

G|---------------3-------------|
D|-----3----3------------------|
A|-----------2-1---1--1--1-4-6-|
E|---1---1---------------------|

G|----------------------------------------------------|
D|-----------------4—----3-----3--3-------------------|
A|-------------------------------------------------4-6|
E|--0-----7~-6-4-4----2-2—----1--1---------—6-6-6-6---|

G|----------------------------------------------------|
D|-----------------4—----3-----3--3-------------------|
A|--2--2~------------------------------------------4-6|
E|---2-------6-4-4----2=2—----1--1---------—6-6-6-6---|

G|----------------------------------------------------|
D|-----------------4—----3-----3--3-------------------|
A|-------------------------------------------------4-6|
E|--------7~-6-4-4----2-2—----1--1---------—6-6-6-6---|

G|----------------------------------------------------|
D|-----------------4—----3-----3--3-------------------|
A|--2--2~------------------------------------------4-6|
E|---2-------6-4-4----2=2—----1--1---------—6-6-6-6---|

G|----------------------------------------------------|
D|-----------------4—----3-----3--3-------------------|
A|-------------------------------------------------4-6|
E|--------7~-6-4-4----2-2—----1--1---------—6-6-6-6---|
 x4()

(ariana’s part)

G|--------------------------------------------|
D|--------6------6-------8------8-------------|
A|------------------6--------------8---6------|
E|----4------4--------6-----6-------------6---|

G|-------------------8--10--12~------|
D|-------------6--8------------------|
A|-----6--8--9-----------------------|
E|-7-6-------------------------------|

G|-------------------------------------------|
D|--------6------6-------8-------------------|
A|------------------6--------4-----2~---4~~~~|
E|----4------4--------6---------2----------4~|

(main)

G|----------------------------------------------------|
D|-----------------4—----3-----3--3-------------------|
A|----4-6------------------------------------------4-6|
E|--6------7~-6-4-4----2-2—----1--1--------—6-6-6-6---|

G|----------------------------------------------------|
D|-----------------4—----3-----3--3-------------------|
A|--9~---------------------------------------------4-6|
E|--------7~-6-4-4----2-2—----1--1---------—6-6-6-6---|

G|----------------------------------------------------|
D|-----------------4—----3-----3--3-------------------|
A|-------------------------------------------------4-6|
E|--------7~-6-4-4----2-2—----1--1---------—6-6-6-6---|

G|----------------------------------------------------|
D|-----------------4—----3-----3--3-------------------|
A|--2--2~------------------------------------------4-6|
E|---2-------6-4-4----2=2—----1--1---------—6-6-6-6---|

***********************************

| ~  Vibrato/hold note
| /  Slide-up

***********************************

Almost there ...

Sign in to get your own page with links to favourite songs and more. You are just one click away...

Login with Facebook Login with Google