Log in

One click and you are in

Login with Facebook Login with Google

Why sign up and log in

Guitar Tabs Explorer
Mac Miller guitar tabs for Good news

Guitar tabs

Tuning: Standard (E A D G B E)


Intro:


Riff repeats throughout - listen to song for timings.
.
e|---------------------------------------------------------------------------|
B|--9--9---------7---------5-------------------5--4--------------------------|
G|--------9---------8----------------------6---------6--6-----6--------------|
D|-----------9---------10---------------6------------------7-----7--7--------|
A|--7--------------------------------7------------------4-----4--------------|
E|---------------------7---5-------------------------------------------------|

e|---------------------------------------------------------------------------|
B|-----------9--------8------------------------------------------------------|
G|--4-----------9-----9--9---------------------------------------------------|
D|-----7--6--------6---------------------------------------------------------|
A|-----------6--------------6------------------------------------------------|
E|---------------------------------------------------------------------------|


Repeats throughout the song - there are a few strange overtones so this may not be entirely correct.

The basic chords are (A chord diagramE MajorE major - A chord diagramBB Major - A chord diagramA majorA Major 7 - A chord diagramA majorA Major 7 - A chord diagramC#C# Minor - A chord diagramC#C# Minor - A chord diagramE MajorE Minor - A chord diagramE MajorE Major)

Other versions of Good News

Good newsChords

Almost there ...

Sign in to get your own page with links to favourite songs and more. You are just one click away...

Login with Facebook Login with Google