Log in

One click and you are in

Login with Facebook Login with Google

Why sign up and log in

Guitar Tabs Explorer
Jake Miller guitar tabs for Selfish girls

Solo tabs

Song Title: Selfish Girls
Tabbed by: Brian Christopher Sicat
Tuning: Standard - Capo on 2nd Fret

This pretty much applies to the whole song. Enjoy!


e|--------------------------------2--x--------3p0--x-----------------------|
B|--------0--x----1-----x---------3--x---1----1----x-----------------------|
G|--------0--x----0-----x---------2--x---0---------------------------------|
D|----------------2-----x---0-0----------2---------------------------------|
A|-------------------------------------------------------------------------|
E|-3---------x-------------------------------------------------------------|

e|-------------------------------------------------------------------------|
B|--------0--x----2-----x--------1---1--x-----0----x-----------------------|
G|--------0--x----0-----x--------0---0--x-----0----x-----------------------|
D|----------------2-----x--------2---2--x-----0----x-----------------------|
A|--------------------------0----------------------------------------------|
E|-0--3------x-------------------------------------------------------------|




************************************

p   pull-off
x   Mute note

Other versions of Selfish Girls

Selfish girlsChords

Almost there ...

Sign in to get your own page with links to favourite songs and more. You are just one click away...

Login with Facebook Login with Google