Log in

One click and you are in

Login with Facebook Login with Google

Why sign up and log in

Guitar Tabs Explorer
Jake Miller guitar tabs for Parade

Guitar tabs

  • Capo on 4th
Verse:
e|0h2-2-s-------s--------| |-0h2-2-s-------s--------|
B|------s-------s--------| |-------s-------s--3-3-2-|
G|------s-2-2-4-s--4-4-2-| |-------s-2-2-4-s--------|
D|0-----s-------s--------| |-0-----s-------s--------|
A|------s-------s--------| |-------s-------s-2--2-0-|
E|------s-2-2-3-s-3--3-2-| |-------s-2-2-3-s--------|

Pre-Chorus:
e|--------------------|
B|----------3--3\2--2-|
G|-4-4\0--0-----------|
D|--------------------|
A|----------2-2--0-0--|
E|-3-3-0-0------------|

Chorus:
e|0h2-2-s-------s--------| |-0h2-2-s-------s--------|
B|------s-------s--------| |-------s-------s--3-3-2-|
G|------s-2-2-4-s--4-4-2-| |-------s-2-2-4-s--------|
D|0-----s-------s--------| |-0-----s-------s--------|
A|------s-------s--------| |-------s-------s-2--2-0-|
E|------s-2-2-3-s-3--3-2-| |-------s-2-2-3-s--------|



************************************

| h  Hammer-on
| \  Slide down

Other versions of Parade

Parade acousticTabs

Almost there ...

Sign in to get your own page with links to favourite songs and more. You are just one click away...

Login with Facebook Login with Google