Log in

One click and you are in

Login with Facebook Login with Google

Why sign up and log in

Guitar Tabs Explorer
Jake Miller guitar tabs for Parade acoustic

Guitar tabs

  • Capo on 4th
Intro:

G|---0/2--2--------------------------------------------------|
D|-----------------------------------------------------------|
B|--------------------2-----2-----4-----------------4--4--2--|
F|---0/---0--------------------------------------------------|
C|-----------------------------------------------------------|
G|--------------2--2--2-----2-----3-----3-----3--3------3--2-|

G|---0/2--2--------------------------------------------------|
D|--------------------------------------------------3--3--2--|
B|--------------------2-----2-----4--------------------------|
F|---0/---0--------------------------------------------------|
C|--------------------------------------2-----2--2-----2--0--|
G|--------------2--2--2-----2-----3--3-----------------------|        X3

G|--------------------------------------------------------------------|
D|-----------------------------------------3---------------3/2-----2--|
B|--4------------4/0-----0-----------0--------------------------------|
F|--------------------------------------------------------------------|
C|-----------------------------------------2-----2--2--------------0--|
G|--3--------3-----0-----0-----0--------------------------------------|

Chorus:

G|---0/2--2--------------------------------------------------|
D|-----------------------------------------------------------|
B|--------------------2-----2-----4-----------------4--4--2--|
F|---0/---0--------------------------------------------------|
C|-----------------------------------------------------------|
G|--------------2--2--2-----2-----3-----3-----3--3------3--2-|

G|---0/2--2--------------------------------------------------|
D|--------------------------------------------------3--3--2--|
B|--------------------2-----2-----4--------------------------|
F|---0/---0--------------------------------------------------|
C|--------------------------------------2-----2--2-----2--0--|
G|--------------2--2--2-----2-----3--3-----------------------|

Verse:

G|---0/2--2--------------------------------------------------|
D|-----------------------------------------------------------|
B|--------------------2-----2-----4-----------------4--4--2--|
F|---0/---0--------------------------------------------------|
C|-----------------------------------------------------------|
G|--------------2--2--2-----2-----3-----3-----3--3------3--2-|

G|---0/2--2--------------------------------------------------|
D|--------------------------------------------------3--3--2--|
B|--------------------2-----2-----4--------------------------|
F|---0/---0--------------------------------------------------|
C|--------------------------------------2-----2--2-----2--0--|
G|--------------2--2--2-----2-----3--3-----------------------|



************************************

| /  Slide up

Other versions of Parade Acoustic

ParadeTabs

Almost there ...

Sign in to get your own page with links to favourite songs and more. You are just one click away...

Login with Facebook Login with Google