Log in

One click and you are in

Login with Facebook Login with Google

Why sign up and log in

Guitar Tabs Explorer
Jake Miller guitar tabs for First flight home

Guitar tabs with lyrics

-------------------------------------------------------------------------------
                             First Flight Home - Jake Miller
-------------------------------------------------------------------------------
Tabbed by:h0pw00d
E-mail: mhopwood99@gmail.com
No capo
If you have trouble with this song send me an email at h0pw00dguitartabs@gmail.com and i
will make a video to
help with any tabs ive made.

Tuning:Standard
Intro:   A chord diagramC majorC        A chord diagramG/BG/B     A chord diagramE minorEm        Dsus4addb11
e|----x--x--x----x--x----x--x--x----x--x-----------------------------------------------|
B|----5--5--5----3--3----8--8--8----7--7-----------------------------------------------|
G|----0--0--0----0--0----0--0--0----0--0-----------------------------------------------|
D|----x--x--x----x--x----x--x--x----x--x-----------------------------------------------|
A|----3--3--3----2--2----7--7--7----5--5-----------------------------------------------|
E|----x--x--x----x--x----x--x--x----x--x-----------------------------------------------|

Verse: A chord diagramC majorC        A chord diagramG/BG/B     A chord diagramE minorEm        A chord diagramG/BG/B
     I hope you still remember what I look like, I haven't seen you in a minute
e|----x--x--x----x--x----x--x--x----x--x-----------------------------------------------|
B|----5--5--5----3--3----8--8--8----3--3-----------------------------------------------|
G|----0--0--0----0--0----0--0--0----0--0-----------------------------------------------|
D|----x--x--x----x--x----x--x--x----x--x-----------------------------------------------|
A|----3--3--3----2--2----7--7--7----2--2-----------------------------------------------|
E|----x--x--x----x--x----x--x--x----x--x-----------------------------------------------|
       A chord diagramC majorC        A chord diagramG/BG/B     A chord diagramE minorEm        Dsus4addb11
     Last night, I had the type of dream that you just don't wanna wake up from, and
thats cuz you were in it
e|----x--x--x----x--x----x--x--x----x--x-----------------------------------------------|
B|----5--5--5----3--3----8--8--8----7--7-----------------------------------------------|
G|----0--0--0----0--0----0--0--0----0--0-----------------------------------------------|
D|----x--x--x----x--x----x--x--x----x--x-----------------------------------------------|
A|----3--3--3----2--2----7--7--7----5--5-----------------------------------------------|
E|----x--x--x----x--x----x--x--x----x--x-----------------------------------------------|
(Repeat those chords for:)
So this morning when i woke up, it felt more like a nightmare,
cuz i rolled over and i thought that you'd be right there but
nope im just layin here alone on my own wishin i was on the first flight home

Prechorus:

ill be home in no time, i promise when i touch down it'll be like i never left
e|----x--x--x----x--x----x--x--x----x--x-----------------------------------------------|
B|----5--5--5----3--3----8--8--8----3--3-----------------------------------------------|
G|----0--0--0----0--0----0--0--0----0--0-----------------------------------------------|
D|----x--x--x----x--x----x--x--x----x--x-----------------------------------------------|
A|----3--3--3----2--2----7--7--7----2--2-----------------------------------------------|
E|----x--x--x----x--x----x--x--x----x--x-----------------------------------------------|
Singin ill be home in no time, by the way check your phone cuz i just sent you a text saying
e|----x--x--x----x--x--------------x-----------------------------------------------|
B|----5--5--5----3--3--------------7-----------------------------------------------|
G|----0--0--0----0--0--------------0-----------------------------------------------|
D|----x--x--x----x--x--------------x-----------------------------------------------|
A|----3--3--3----2--2--------------5-----------------------------------------------|
E|----x--x--x----x--x--------------x-----------------------------------------------|
Chorus:
       A chord diagramEm7/BEm7/B  A chord diagramCadd9Cadd9 A chord diagramG MajorG  A chord diagramD/AD/A
     Hey, Ive been gone forever Im coming home tonight
e|----3--3--3--2-----------------------------------------------------------------|
B|----3--3--3--3-----------------------------------------------------------------|
G|----0--0--0--2-----------------------------------------------------------------|
D|----2--2--0--0-----------------------------------------------------------------|
A|----2--3--2--0-----------------------------------------------------------------|
E|----x--x--3--x-----------------------------------------------------------------|
     Well be back together, this plane gon fly
e|----3--3--3--2-----------------------------------------------------------------|
B|----3--3--3--3-----------------------------------------------------------------|
G|----0--0--0--2-----------------------------------------------------------------|
D|----2--2--0--0-----------------------------------------------------------------|
A|----2--3--2--0-----------------------------------------------------------------|
E|----x--x--3--x-----------------------------------------------------------------|
    I can't predict the weather, but you should know that i
e|----3--3--3--2-----------------------------------------------------------------|
B|----3--3--3--3-----------------------------------------------------------------|
G|----0--0--0--2-----------------------------------------------------------------|
D|----2--2--0--0-----------------------------------------------------------------|
A|----2--3--2--0-----------------------------------------------------------------|
E|----x--x--3--x-----------------------------------------------------------------|
    Ill be on that first flight home ill be on the first flight home
e|----3--3--3--2-----------------------------------------------------------------|
B|----3--3--3--3-----------------------------------------------------------------|
G|----0--0--0--2-----------------------------------------------------------------|
D|----2--2--0--0-----------------------------------------------------------------|
A|----2--3--2--0-----------------------------------------------------------------|
E|----x--x--3--x-----------------------------------------------------------------|
Verse:
And I bet if i left right now,(right now)
ill probably make it to you by the morning
so im packing all my bags hoppin on this red eye ill be there before your eyes even open
hurry up and tell the pilot to take off
so we can pick up right where we left off
i can't believe im finally on my way it feels so damn good to be able to say

[Prechorus]

[Chorus}
SAME CHORDS AS CHORUS:
Ill be comin back tonight keep your head up to the sky
cuz ill be on that first flight home ill be on that first flight home
 A chord diagramCadd9Cadd9
And now i pull up to your driveway
A chord diagramG MajorG
been a while since ive been on this block
A chord diagramEm7/BEm7/B
then ima walk up to your front door
A chord diagramD/AD/A
i know you'll recognize the same knock
A chord diagramCadd9Cadd9
i hear you runnin down the stairs now
A chord diagramG MajorG
tears runnin down your face
A chord diagramEm7/BEm7/B  A chord diagramD/AD/A  A chord diagramCadd9Cadd9  (fast)
then you open up the front door
then i look at you and say

Chorus chords 1 strum each:
Hey I know ive been gone forever
but im finally home tonight
now that im here im never
leaving your side
i told you i was coming
sorry it took so long
i was on that first flight home
i was on the first flight home

[chorus] ll be comin back tonight keep your head up to the sky
cuz ill be on that first flight home ill be on that first flight home

Other versions of First Flight Home

First flight homeChords

Almost there ...

Sign in to get your own page with links to favourite songs and more. You are just one click away...

Login with Facebook Login with Google