Log in

One click and you are in

Login with Facebook Login with Google

Why sign up and log in

Guitar Tabs Explorer
Dominic Miller tabs for Buenos aires

Guitar tabs with lyrics

**********************
*    Buenos Aires    *
* by Dominic Miller  *
* Album: First Touch *
**********************

tabulature by: Marco W.
email: wohe73@hotmail.com

this tab should come rather close to the song as you can hear it on
the CD. nevertheless if you have suggestions to make it more accurate
just drop a line.
E-----5---------|--------0--------0--------|-----------0--|-------------
B----5----------|-----1--------1-----------|-----1--------|--1-----0----
G---5-----------|--4--------0--------2-----|--------2-----|-----2-------
D---------------|--------------------------|--------------|-------------
A---------------|--------------------------|--0-----------|-------------
E---------------|--------------------------|--------------|-------------


E---------------------------|--------------0-----|----------------------
B------3-----------------3--|--3-----1--------3--|--------3--1--0--1----
G---2-----2--------1--------|-----2-----2--------|-----2----------------
D------------2--------2-----|--------------------|----------------------
A---------------------------|--------------------|----------------------
E---------------0-----------|--------------------|--1-------------------


E---|-----------------0-----|-----------0--------|----------------------
B---|-----1-----0--------3--|-----1--------1-----|-----0----------------
G---|--------2-----2--------|--------2--------2--|--------0-----0-------
D---|-----------------------|--------------------|-----------0-----0----
A---|-----------------------|--0-----------------|----------------------
E---|--4--------------------|--------------------|--3-------------------


E---------|--------------0--------|-------------------------------------
B---------|--------2--------2-----|--1-----0-----3-----------------3----
G------2--|-----2-----2--------2--|-----2-----2-----2--------1----------
D---------|--0--------------------|--------------------2--------2-------
A---1-----|-----------------------|-------------------------------------
E---------|-----------------------|-----------------------0-------------


E---|--------------0-----|--------------------|-----------------0-------
B---|--3-----1--------3--|--------3--1--0--1--|-----1-----0--------3----
G---|-----2-----2--------|-----2--------------|--------2-----2----------
D---|--------------------|--------------------|-------------------------
A---|--------------------|--------------------|-------------------------
E---|--------------------|--1-----------------|--4----------------------


E---|-----------0--------------------------------|----------------------
B---|-----1--------1--------0--------------------|-----------2--5--2----
G---|--------2--------2--------0-----0--------2--|--------2-------------
D---|-----------------------------0-----0--------|-----3----------------
A---|--0-----------------------------------1-----|--5-------------------
E---|--------------------3-----------------------|----------------------


E---------|-----------0--3--1--0---------p-h---|--0-----0-------0--|----
B---------|--------1--------------3-----2-0-2--|--------1-------0--|----
G---2-----|-----1------------------------------|--------0-------0--|----
D------3--|------------------------------------|-------------------|----
A---------|--------------------------0---------|--------2----------|----
E---------|--0---------------------------------|-----3-----(3)-----|----


E------3-------3--------5-----0--|-----3-------3--1-----0--3-----|------
B---------(3)-----6-----4-----3--|--------(1)-----------1-----3--|------
G-----------------------5-----2--|----------------------1--------|------
D--------------------------------|-------------------------------|------
A--------------------3-----3-----|--3----------------1-----------|------
E---3----------------------------|-------------------------------|------


E---------------0-----|--------0--------0-----|-------------------------
B---1--------1--------|-----1--------1--------|-------------------------
G---------4--------4--|--4--------0--------2--|-------------------------
D---------------------|-----------------------|-------------------------
A------0--------------|-----------------------|-------------------------
E---------------------|-----------------------|-------------------------




==                       TABLATURE EXPLANATION                        ==


----------                ----------                ----t---
----5h8--- Hammeron       ----(8)--- Ghost          ----6--- Tap
----------                ---------- Note           --------
----5p8--- Pulloff        ----------                --------

----------                ----------                -----p--
----5/8--- Slide Up       -----x---- Dead           -----7-- Pop
----------                ---------- Note           --s-----
----5\8--- Slide Down     ----------                --5----- Slap

----------                ||------|| Repeat         --------
----5~~~-- Vibrato        ||*----*||                ---5^--- Bend
----------                ||*----*||                --------
----------                ||------||                --------

----------                ----------                --------
-4:------- Time           ----------                --------
-4:------- Signature      ----------                --------
----------                ----------                --------


==               Created with BUCKET O' TAB for Windows               ==

Almost there ...

Sign in to get your own page with links to favourite songs and more. You are just one click away...

Login with Facebook Login with Google