Log in

One click and you are in

Login with Facebook Login with Google

Why sign up and log in

Guitar Tabs Explorer
Millencolin chords for Right about now

Guitar chords

Album: Pennybridge pioneers
Tabbed by: Jon William Rike (fiset2001@hotmail.com)


Main Riff & intro(played 2 times in the intro and 4 times in the verse)
----------------------------
----------------------------
-9-9-9----------------------
-9-9-9---11-11-11---7-7-7---
-7-7-7---11-11-11---7-7-7---
----------9-9---9---5-5-5---
Chorus:
Play this 2 times(the lines under)
--------------------------------
--------------------------------
-------------------------9-9-9--
-11-11-11-11----7-7-7----9-9-9--
-11-11-11-11----7-7-7----7-7-7--
--9--9--9--9----5-5-5-----------

Now play the Main riff once then the chorus again and then over too the

bridge


Bridge:
(..at 23, I was far from feeling...)

--------------------------------------------------------------------------------
--------------------------------------------------------------------------------
--------------------------------------------------------------------------------
----------9-9-9----------------9-9-9--------------------------------------------
-7-7-7----9-9-9------7-7-7-----9-9-9-----11-11-11----7-7-7-----9-9-9------------
-7-7-7----7-7-7------7-7-7-----7-7-7-----11-11-11----7-7-7-----9-9-9------------
-5-5-5---------------5-5-5----------------9--9--9----5-5-5-----7-7-7------------
(At 23..)             (At 24..)           (Now im 25..)        (I`ll never
give..)

Now comes the solo and the rythm guitar playes the chorus again.
After the solo is complete it continues to play the chorus one last time.

Tabbed By Jon William Rike, Norway.

Almost there ...

Sign in to get your own page with links to favourite songs and more. You are just one click away...

Login with Facebook Login with Google