No Cigar by Millencolin

No Cigar tab by Millencolin

Guitar tabs

Tuning: Standard (E A D G B E)

Millencolin No Cigar

Intro:
e|-----------------|-----------------|-----------------|-----------------|
B|-----------------|-----------------|-----------------|-----------------|
G|-x-6-6-6-6-6-6-6-|-9-9-9-9-9-9-9-9-|-----------------|-----------------| x2
D|-x-6-6-6-6-6-6-6-|-9-9-9-9-9-9-9-9-|-7-7-7-7-7-7-7-7-|-4-4-4-4-4-4-4-4-|
A|-x-4-4-4-4-4-4-4-|-7-7-7-7-7-7-7-7-|-7-7-7-7-7-7-7-7-|-4-4-4-4-4-4-4-4-|
E|-----------------|-----------------|-5-5-5-5-5-5-5-5-|-2-2-2-2-2-2-2-2-|

Verse 1:
e|-----------------|-----------------|-----------------|-----------------|
B|-----------------|-----------------|-----------------|-----------------|
G|-----------------|-----------------|-----------------|-----------------| x2
D|-6-6-6-6-6-6-6-6-|-9-9-9-9-9-9-9-9-|-----------------|-----------------|
A|-4-4-4-4-4-4-4-4-|-7-7-7-7-7-7-7-7-|-7-7-7-7-7-7-7-7-|-4-4-4-4-4-4-4-4-|
E|-----------------|-----------------|-5-5-5-5-5-5-5-5-|-2-2-2-2-2-2-2-2-|
  . . . . . . . .  . . . . . . . .  . . . . . . . .  . . . . . . . .

Intro:
e|-----------------|-----------------|-----------------|-----------------|
B|-----------------|-----------------|-----------------|-----------------|
G|-x-6-6-6-6-6-6-6-|-9-9-9-9-9-9-9-9-|-----------------|-----------------| x2
D|-x-6-6-6-6-6-6-6-|-9-9-9-9-9-9-9-9-|-7-7-7-7-7-7-7-7-|-4-4-4-4-4-4-4-4-|
A|-x-4-4-4-4-4-4-4-|-7-7-7-7-7-7-7-7-|-7-7-7-7-7-7-7-7-|-4-4-4-4-4-4-4-4-|
E|-----------------|-----------------|-5-5-5-5-5-5-5-5-|-2-2-2-2-2-2-2-2-|

Pre Chorus:
e|-----------------|-----------------|-----------------|-----------------|
B|-----------------|-----------------|-----------------|-----------------|
G|-----------------|-----------------|-----------------|-----------------|
D|-----------------|-----------------|-x-7-7-7-7-7-7-7-|-x-7-7-7-7-7-7-7-|
A|-x-7-7-7-7-7-7-7-|-7-7-7-7-7-7-7-7-|-x-7-7-7-7-7-7-7-|-x-7-7-7-7-7-7-7-|
E|-x-5-5-5-5-5-5-5-|-5-5-5-5-5-5-5-5-|-x-5-5-5-5-5-5-5-|-x-5-5-5-5-5-5-5-|
   . . . . . . .  . . . . . . . .

Chorus 1:
e|-----------------|-----------------|-----------------|-----------------|
B|-----------------|-----------------|-----------------|-----------------|
G|-----------------|-----------------|-----------------|-----------------| x2
D|-2-2-2-2-2-2-2-2-|-4-4-4-4-4-4-4-4-|-7-7-7-7-7-7-7-7-|-7-7-7-7-7-7-7-7-|
A|-2-2-2-2-2-2-2-2-|-4-4-4-4-4-4-4-4-|-7-7-7-7-7-7-7-7-|-7-7-7-7-7-7-7-7-|
E|-0-0-0-0-0-0-0-0-|-2-2-2-2-2-2-2-2-|-5-5-5-5-5-5-5-5-|-5-5-5-5-5-5-5-5-|

Intro:
e|-----------------|-----------------|-----------------|-----------------|
B|-----------------|-----------------|-----------------|-----------------|
G|-x-6-6-6-6-6-6-6-|-9-9-9-9-9-9-9-9-|-----------------|-----------------| x2
D|-x-6-6-6-6-6-6-6-|-9-9-9-9-9-9-9-9-|-7-7-7-7-7-7-7-7-|-4-4-4-4-4-4-4-4-|
A|-x-4-4-4-4-4-4-4-|-7-7-7-7-7-7-7-7-|-7-7-7-7-7-7-7-7-|-4-4-4-4-4-4-4-4-|
E|-----------------|-----------------|-5-5-5-5-5-5-5-5-|-2-2-2-2-2-2-2-2-|

Verse 2:
e|-----------------|-----------------|-----------------|-----------------|
B|-----------------|-----------------|-----------------|-----------------|
G|-x-6-------------|-----------------|-----------------|-----------------|
D|-x-6-------------|-----------------|-----------------|-----------------|
A|-x-4-------------|-----------------|-----------------|-----------------|
E|-----------------|-----------------|-----------------|-----------------|

e|-----------------|-----------------|----------------------|-------------------------|
B|-----------------|-----------------|----------------------|-------------------------|
G|-----------------|-----------------|----------------------|-------------------------|
D|-----------------|-----------------|----------------------|-------------------------|
A|-4-4-4-4-4-4-4-4-|-7-7-7-7-7-7-7-7-|-9--9--9--9--9--9--9--|-11-11-11-11-12-12-12-12-|
E|-----------------|-----------------|----------------------|-------------------------|
  . . . . . . . .  . . . . . . . .  . . . . . . .  . . . . . . . .

Pre Chorus:
e|-----------------|-----------------|-----------------|-----------------|
B|-----------------|-----------------|-----------------|-----------------|
G|-----------------|-----------------|-----------------|-----------------|
D|-x-7-7-7-7-7-7-7-|-7-7-7-7-7-7-7-7-|-x-7-7-7-7-7-7-7-|-x-7-7-7-7-7-7-7-|
A|-x-7-7-7-7-7-7-7-|-7-7-7-7-7-7-7-7-|-x-7-7-7-7-7-7-7-|-x-7-7-7-7-7-7-7-|
E|-x-5-5-5-5-5-5-5-|-5-5-5-5-5-5-5-5-|-x-5-5-5-5-5-5-5-|-x-5-5-5-5-5-5-5-|

Chorus 2:
e|-----------------|-----------------|-----------------|-----------------|
B|-----------------|-----------------|-----------------|-----------------|
G|-----------------|-----------------|-----------------|-----------------| x2
D|-2-2-2-2-2-2-2-2-|-4-4-4-4-4-4-4-4-|-7-7-7-7-7-7-7-7-|-7-7-7-7-7-7-7-7-|
A|-2-2-2-2-2-2-2-2-|-4-4-4-4-4-4-4-4-|-7-7-7-7-7-7-7-7-|-7-7-7-7-7-7-7-7-|
E|-0-0-0-0-0-0-0-0-|-2-2-2-2-2-2-2-2-|-5-5-5-5-5-5-5-5-|-5-5-5-5-5-5-5-5-|

e|-----------------|-----------------|-----------------|-----------------|
B|-----------------|-----------------|-----------------|-----------------|
G|-----------------|-----------------|-----------------|-----------------| x2
D|-2-x-2-x-2-x-2-2-|-4-x-4-x-4-x-4-4-|-7-x-7-x-7-x-7-7-|-7-x-7-x-7-x-7-7-|
A|-2-x-2-x-2-x-2-2-|-4-x-4-x-4-x-4-4-|-7-x-7-x-7-x-7-7-|-7-x-7-x-7-x-7-7-|
E|-0-x-0-x-0-x-0-0-|-2-x-2-x-2-x-2-2-|-5-x-5-x-5-x-5-5-|-5-x-5-x-5-x-5-5-|

Bridge:
e|-----------------|-----------------|-----------------|-----------------|
B|-----------------|-----------------|-----------------|-----------------|
G|-----------------|-----------------|-----------------|-----------------|
D|-x-4-4-4-4-4-4-4-|-x-4-4-4-4-4-4-4-|-x-7-7-7-7-7-7-7-|-x-7-7-7-7-7-7-7-|
A|-x-4-4-4-4-4-4-4-|-x-4-4-4-4-4-4-4-|-x-7-7-7-7-7-7-7-|-x-7-7-7-7-7-7-7-|
E|-x-2-2-2-2-2-2-2-|-x-2-2-2-2-2-2-2-|-x-5-5-5-5-5-5-5-|-x-5-5-5-5-5-5-5-|

e|-----------------|-----------------|------------------------|-----------------|
B|-----------------|-----------------|------------------------|-----------------|
G|-----------------|-----------------|------------------------|-----------------|
D|-x-4-4-4-4-4-4-4-|-x-4-4-4-4-4-4-4-|-x-11-11-11-11-11-11-11-|-x-9-9-9-9-9-9-9-|
A|-x-4-4-4-4-4-4-4-|-x-4-4-4-4-4-4-4-|-x-11-11-11-11-11-11-11-|-x-9-9-9-9-9-9-9-|
E|-x-2-2-2-2-2-2-2-|-x-2-2-2-2-2-2-2-|-x-9--9--9--9--9--9--9--|-x-7-7-7-7-7-7-7-|

e|-----------------|-----------------|-----------------|-----------------|
B|-----------------|-----------------|-----------------|-----------------|
G|-----------------|-----------------|-----------------|-----------------|
D|-7-7-7-7-7-7-7-7-|-7-7-7-7-7-7-7-7-|-7-7-7-7-7-7-7-7-|-7-7-7-7-7-7-7-7-|
A|-7-7-7-7-7-7-7-7-|-7-7-7-7-7-7-7-7-|-7-7-7-7-7-7-7-7-|-7-7-7-7-7-7-7-7-|
E|-5-5-5-5-5-5-5-5-|-5-5-5-5-5-5-5-5-|-5-5-5-5-5-5-5-5-|-5-5-5-5-5-5-5-5-|

Chorus 2:
e|-----------------|-----------------|-----------------|-----------------|
B|-----------------|-----------------|-----------------|-----------------|
G|-----------------|-----------------|-----------------|-----------------| x2
D|-2-2-2-2-2-2-2-2-|-4-4-4-4-4-4-4-4-|-7-7-7-7-7-7-7-7-|-7-7-7-7-7-7-7-7-|
A|-2-2-2-2-2-2-2-2-|-4-4-4-4-4-4-4-4-|-7-7-7-7-7-7-7-7-|-7-7-7-7-7-7-7-7-|
E|-0-0-0-0-0-0-0-0-|-2-2-2-2-2-2-2-2-|-5-5-5-5-5-5-5-5-|-5-5-5-5-5-5-5-5-|

e|-----------------|-----------------|-----------------|-----------------|
B|-----------------|-----------------|-----------------|-----------------|
G|-----------------|-----------------|-----------------|-----------------| x2
D|-2-x-2-x-2-x-2-2-|-4-x-4-x-4-x-4-4-|-7-x-7-x-7-x-7-7-|-7-x-7-x-7-x-7-7-|
A|-2-x-2-x-2-x-2-2-|-4-x-4-x-4-x-4-4-|-7-x-7-x-7-x-7-7-|-7-x-7-x-7-x-7-7-|
E|-0-x-0-x-0-x-0-0-|-2-x-2-x-2-x-2-2-|-5-x-5-x-5-x-5-5-|-5-x-5-x-5-x-5-5-|

Outro:
e|-----------------|-----------------|
B|-----------------|-----------------|
G|-x-9-9-9-9-9-9-9-|-----------------|
D|-x-9-9-9-9-9-9-9-|-x-2-2-2-2-2-2-2-|
A|-x-7-7-7-7-7-7-7-|-x-2-2-2-2-2-2-2-|
E|-----------------|-x-0-0-0-0-0-0-0-|



************************************

| x Dead note
| . palm muting

************************************

Other versions of No Cigar

Alternative guitar chords and tabs for No Cigar by Millencolin

Find guitar tabs and chords

A B C D E F G H I J K L M N O P Q R S T U V W X Y Z #