Mr Clean by Millencolin

Mr Clean tab by Millencolin

Guitar tabs

These are just the notes, not the time, so listen to the song if you
want to get the timing right. Most of the spaces are filled with fast picks.


 (Mr clean tell...)               let ring...

  B        C# D       F#      G     A

e-|--------------------------------------------------------|
B-|--------------------------------------------------------|
G-|--------------------------------------------------------|
D-|---------------------------------4-------------5------7-|
A-|-2-2-2-2-2-2-2-2-4-5-5-5-5-5-5-5-4-------------5------7-|
E-|---------------------------------2-2-2-2-2-2-2-3------5-|


lead guitar (intro riff)

e-|------------------------------------------------------|
B-|-7-5-7-0-0-0-0-0-8-0-0-0-0-0-5------------------------|
G-|-------------------------------6-6-6-6-6--3-3-3-3-3-4-|
D-|------------------------------------------------------|
A-|------------------------------------------------------|
E-|------------------------------------------------------|

e-|----------------------------------------------------|
B-|-7-0-0-0-0-0-8-0-0-0-0-0-5------------------------^-|
G-|---------------------------6-6-6-6-6--3-4-3-4-3-4-3-| pick
D-|----------------------------------------------------| harmonic (I always use a Pinch harmonic)
A-|----------------------------------------------------|
E-|----------------------------------------------------|


first verse
        2x
  B    G    A    C#  G       A

e-|----------------------------|---------------------------|
B-|----------------------------|---------------------------|
G-|-4-----------------------6--|---------------------------|
D-|-4-------5-------7-------6--|-5--------------7----------|
A-|-2-------5-------7-------4--|-5--------------7----------|
E-|---------3-------5----------|-3--------------5----------|

chorus

e-|-------------------------------------|
B-|-------------------------------------|
G-|-4-------7---------------------------|
D-|-4-------7-------4-------5-------5-7-|
A-|-2-------5-------4-------5-------5-7-| X2
E-|-----------------2-------3-------3-5-|

second verse has same notes as first.


"Looking back at the day that were friends.." part

e-|----------------------------------------------|
B-|----------------------------------------------|
G-|--------------------------4------4-2----------|
D-|-5-------7-------4--------4------4-2-5------7-|
A-|-5-------7-------4--------2------2-0-5------7-| go to chorus
E-|-3-------5-------2-------------------3------5-|

IF YOU HAVE ANY PROBLEMS OR CORRECTIONS, EMAIL ME.

Find guitar tabs and chords

A B C D E F G H I J K L M N O P Q R S T U V W X Y Z #