Mr Clean by Millencolin

Mr Clean bass tab by Millencolin

Bass tabs

Millencolin
Mr. Clean
Tabbed by Arne Hauenschild (Gigabyte16@aol.com)

Mr. Clean tell me ...
change your lifestyle once again
G |---------------------------------------------------|
D |---------------------------------------------------|
A |-2222222222222222>555555555555---------------------|
E |--------------------------------2-2222222--3-----5-|
                                
First        Second
G |------------------------------|-----------|------------------------|
D |*---------------------------*-|-----------|------------------------|
A |*-22-2-22-------------------*-|-----------|------------------------|
E |-----------33-3-33--55-5-55---|-22-2-22---|-2222-3-2222-3-2222-3-2-|


(sorry, but you have to look for the rhythm yourself)!

 Who is cruel...
G |-----------------------------------------|-----------------------------------|
D |*---------------------------------------*|-----------------------------------|
A |*-22222222------------------------------*|-----------------------------------|
E |------------33333333-55555555-22222222---|-3333333333333333-5555555555555555-|

Mr. Clean tell..                                          
only first
G |-------------------------------------------------------|------|
D |*-----------------------------------------------------*|------|
A |*-2222222222222222>555555555555-----------------------*|----2-|
E |----------------------------------22222222--333333333--|-35---|


G |------------------------------|-----------|------------------------|
D |*---------------------------*-|-----------|------------------------|
A |*-22-2-22-------------------*-|-----------|------------------------|
E |-----------33-3-33--55-5-55---|-22-2-22---|-2222-3-2222-3-2222-3-2-|

It's hard to go in...                       
at least I have the right ...
G |-----------------------------------------|-----------------------------------|
D |*---------------------------------------*|-----------------------------------|
A |*-22222222------------------------------*|-----------------------------------|
E |------------33333333-55555555-22222222---|-3333333333333333-5555555555555555-|

Mr Clean tell me ...                                             
when you ...
G |-------------------------------------------------------|------|----------|
D |*-----------------------------------------------------*|------|----------|
A |*-2222222222222222>555555555555-----------------------*|----2-|----------|
E |----------------------------------22222222--333333333--|-35---|-555555555|

looking back at ..
G |--------------------------------------------------------|
D |--------------------------------------------------------|
A |-----------------------------222222-2-------------------|
E |-33333333-5555555--222222222----------5-3-3333333333333-|

Mr. Clean tell..                                          
only first
G |-------------------------------------------------------|------|
D |*-----------------------------------------------------*|------|
A |*-2222222222222222>555555555555-----------------------*|----2-|
E |----------------------------------22222222--333333333--|-35---|

G |------------------------------|-----------|------------------------|
D |*---------------------------*-|-----------|------------------------|
A |*-22-2-22-------------------*-|-----------|------------------------|
E |-----------33-3-33--55-5-55---|-22-2-22---|-2222-3-2222-3-2222-3-2-|

Find guitar tabs and chords

A B C D E F G H I J K L M N O P Q R S T U V W X Y Z #