Man Or Mouse by Millencolin

Man Or Mouse tab by Millencolin

Guitar tabs

--------------------------------------------------------------------------------
              Mouse Or Man - Millencolin
--------------------------------------------------------------------------------

Artist: Millencolin
Song: Man Or Mouse (Track 1)
Albulm: Home From Home
Tabbed by: Mark Mathias
Moddified by: Zero is Great man.
Tunning: Standard E: EADGBe

Props To Mark, for laying down the Rhythem,
but Instead of just making a new tab from scratch, I just copied and improved his
tab, by adding the lead guitar to it.

R.Guitar :Intro:(Slowly raise the volume of your guitar)
e|---------------------|
B|---------------------|
G|-7-7-7-7-7-7-7-7-7-7-|
D|-7-7-7-7-7-7-7-7-7-7-|[w/Distortion]
A|-5-5-5-5-5-5-5-5-5-5-|
E|---------------------|

L.Guitar :Intro:(Slowly raise the volume of your guitar)
e|---------------------|
B|---------------------|
G|-7-7-7-7-7-7-7-7-7-7-|
D|-x-x-x-x-x-x-x-x-x-x-|[w/Distortion]
A|-5-5-5-5-5-5-5-5-5-5-|
E|---------------------|

R.Guitar: Pre Verse: "Yeah Yeah Yeah Yeah!..."
e|------------------------------------|
B|------------------------------------|
G|-7-7-7-7--5-5-5-5-------------------|
D|-7-7-7-7--5-5-5-5--5-5-5-5--3-3-3-3-|X4
A|-5-5-5-5--3-3-3-3--5-5-5-5--3-3-3-3-|
E|-------------------3-3-3-3--1-1-1-1-|

L.Guitar: Pre Verse: "Yeah Yeah Yeah Yeah!..."
e|---------------------------------------|
B|---------------------------------------|
G|-10-10-10-10-/12-12-12-9-/10-10-10-10-|
D|--x--x--x--x-/-x--x--x-x-/-x--x--x--x-|
A|--8--8--8--8-/10-10-10-7-/-8--8--8--8-|
E|---------------------------------------|

R.Guitar: Pre-Verse Part 2/Outro: [w/Distortion]
e|---------------------------|
B|---------------------------|
G|-7-7-7-7--x-x--7-7-7-7-7-7-|
D|-7-7-7-7--x-x--7-7-7-7-7-7-|
A|-5-5-5-5--x-x--5-5-5-5-5-5-|
E|---------------------------|

L.Guitar: Pre-Verse Part 2/Outro: [w/Distortion]
e|-----------------------|
B|-----------------------|
G|-10-------x-x--10------|
D|--x-(x4)--x-x---x-(x4)-|
A|--8-------x-x---8------|
E|-----------------------|

R. Guitar: Verse 1: "Hear me I sound like a beatle..."
e|------------------------------------|
B|------------------------------------|
G|-7-7-7-7--5-5-5-5-------------------| [w/Distorion]
D|-7-7-7-7--5-5-5-5--5-5-5-5--3-3-3-3-|x4
A|-5-5-5-5--3-3-3-3--5-5-5-5--3-3-3-3-|
E|-------------------3-3-3-3--1-1-1-1-|
 |-----------------p.m--------------|

L. Guitar: Verse (Plays this under the R.Guitar)
e|-----|
B|-----|
G|-7�-|
D|-x�-|
A|-5�-|
E|-----|


Both Guitars: Pre Chorus: "Like a mouse follows the flute..."
e|------------------------------------------------------------|
B|------------------------------------------------------------|
G|-7-7-7-7-7-7-7-7-7-7-7-7-7-7-7-7-7--10-10-10-10-10-10-10-10-|
D|-7-7-7-7-7-7-7-7-7-7-7-7-7-7-7-7-7--10-10-10-10-10-10-10-10-|
A|-5-5-5-5-5-5-5-5-5-5-5-5-5-5-5-5-5--8--8--8--8--8--8--8--8--|
E|------------------------------------------------------------|

R.Guitar: Chorus: "Mouse More Than Man Yes I am..."
e|--------------------------------------------------------------------|
B|--------------------------------------------------------------------|
G|-7-7-7-7-7-7-7-7--5-5-5-5-5-5-5-5-----------------------------------|
D|-7-7-7-7-7-7-7-7--5-5-5-5-5-5-5-5--5-5-5-5-5-5-5-5--3-3-3-3-3-3-3-3-|
A|-5-5-5-5-5-5-5-5--3-3-3-3-3-3-3-3--5-5-5-5-5-5-5-5--3-3-3-3-3-3-3-3-|
E|-----------------------------------3-3-3-3-3-3-3-3--1-1-1-1-1-1-1-1-|

e|--------------------------------|
B|--------------------------------|
G|-7-/9-/109-9-/10-10-9/10------|
D|-x-/x-/-xx-x-/-x--x-x/10------|
A|-5-/7-/-87-7-/-8--8-7/-8-(x6)-|
E|--------------------------------|

L.Guitar Pick Scrapes before the second Verse

R.Guitar: Bridge: "I Cannot care about what other say"
e|------------------------------------|
B|------------------------------------|
G|-7-7-7-7--5-5-5-5-------------------|
D|-7-7-7-7--5-5-5-5--5-5-5-5--3-3-3-3-|
A|-5-5-5-5--3-3-3-3--5-5-5-5--3-3-3-3-|
E|-------------------3-3-3-3--1-1-1-1-|
  |----------------p.m--------------|

L.Guitar
e|------|
B|------|
G|-5-/7-|
D|-x-/x-|
A|-3-/5-|
E|------|

|p.m - Palm Mute
| / - Slide Up
|  - Slide Down
| x - Mute Note


================================================================================

Find guitar tabs and chords

A B C D E F G H I J K L M N O P Q R S T U V W X Y Z #