Lozin Must by Millencolin

Lozin Must tab by Millencolin

Guitar tabs

Difficulty: Novice

Artist:Millencolin
Song:Lozin' Must
Album:Life On A Plate(1997)
Submitted by: Helga

Tune your guitar down a half tone:Eb Ab Db Gb Bb eb
*=palm mute
h=hammer
p=pull-off
7b(9)7=bend one whole tone to 9 then back down to 7

Chords Used

  B5 E5 G#5 C#5 Db5 Eii F#ii
eb:---|---|---|---|---|---|----|
Bb:---|---|---|---|---|---|----|
Gb:-4-|---|---|-6-|-3-|-9-|-11-|
Db:-4-|-2-|-6-|-6-|-1-|-9-|-11-|
Ab:-2-|-2-|-6-|-4-|-1-|-7-|-9--|
Eb:---|-0-|-4-|---|---|---|----|

Verse:
     B5        E5     B5         E5
When i am lozin must in a conversation it makes me use my imagination
G#5             C#5     E5*
start to think that they're after me coz i'm so sore as those monkeys hope
B5         E5      B5            E5
The chat goes on n i feel smaller the guys in front of me they get taller
G#5      C#5      E5*
when i open my mouth again to tell them something more
E5*
they answer me with a hockeyscore

Chorus:
B5       Db5            G#5         E5
Must be strong cant be wrong or youll be lozin must youll be lozin trust in

yourself x2  (on 2nd time of chorus end on F#5)

Verse:
    B5        E5      B5         E5
Well i have this grl n i make her crazy when im gone shes bored and lazy
G#5        C#5   E5*
i get a kick from pushing but im not sure about hown she feels about it
B5        E5        B5      E5
my favorite hockey team is strugglin it makes my stomach bubblin' bad
G#5       C#5      E5*
their hard times really make me sad we had some f***ed up
E5*
now its time to wipe away those tears

Chorus:

Interlude:

eb--------------------------------------------
Bb--------------------------------------------
Gb-4-444444-3-333333-9-999999-11-111111111111-
Db-4-444444-1-111111-9-999999-11-111111111111-  x2
Ab-2-222222-1-111111-7-777777-9--9-9-9-9-9-9--
Eb--------------------------------------------
  * ****** * ****** * ****** * * * * * * *
G#5           E5        G#5          E5
its bin a tough time for me this past year lots of questions who i am or what
i wanna be
G#5       F#5        E5*
also found some answers the fog is gone i feel better every day now the
E5*
felling's here to stay

SOLO:

eb-------------------------------------------------
Bb--7b(8)7---7b(8)7-5-4-0-5-4-0---4h7p4-2------------
Gb-4------4-3------3---------------------------------
Db---------------------4-----4---------------------
Ab-------------------------------------------------
Eb-------------------------------------------------

eb---14b(16)14-----14b(16)--12-11-7-12-11-7-11b(12)11-14b(16)14-----
Bb-12---------12-11-------11-------7--------------------------------
Gb------------------------------------------------------------------
Db------------------------------------------------------------------
Ab------------------------------------------------------------------
Eb------------------------------------------------------------------

Chorus:

Outro:

eb-------------------------------------------
Bb-------------------------------------------
Gb-4--4-4-4-4--8--8-8-8-8--------------------
Db-4--4-4-4-4--8--8-8-8-8--2--2-2-2-2--4-----
Ab-2--2-2-2-2--6--6-6-6-6--2--2-2-2-2--4-----
Eb-------------------------0--0-0-0-0--2-----

Thats the song its pretty easy im pretty sure its 100% correct if your
havin troubles wit any part of da song just lisen to the cd got any
comment e-mail me @ little_punky_mgee_666@hotmail.com ;-}

Yogi



THE END!

Find guitar tabs and chords

A B C D E F G H I J K L M N O P Q R S T U V W X Y Z #