Log in

One click and you are in

Login with Facebook Login with Google

Why sign up and log in

Guitar Tabs Explorer
Millencolin tabs for In a room

Guitar tabs

Album: Use Your Nose
Tabbed by: Adam Plost (ap-fender@home.com)

S=slide
H=hammer
P=pull
b=bend
Pm=palm mute

Heavy harmonics in the beggining
------------------
------------------
------------------
---2--2-----4-5-4s
-0--03-3s5-5-5----
------------------

--------------------------------------------------------
--------------------------------------------------------
---------9------------------------ ----9----------------
-7-7-7-7--7--7-7-7-7-7-5-7---7-7-7-7-7--7--7-7-7-7-7-5-7
--------------------------------------------------------
--------------------------------------------------------
 Chorus
---------------------------------
---------------------------------
---------------------------------
-------------7-----------------
-7---3---5---5-----------------
-5---1---3----------------------

verses
-----------------------------
-----------------------------
-----------------------------
---------5-------------------
-7---3---3---5---7-----------
-5---1-------3---5-----------

Other versions of In A Room

In a roomChords

Almost there ...

Sign in to get your own page with links to favourite songs and more. You are just one click away...

Login with Facebook Login with Google