Chameleon by Millencolin

Chameleon tab by Millencolin

Guitar tabs

Chameleon
Millencolin
True Brew (2015)
Standard Tuning
Strumming and amount of chords are not exact, listen to song to understand the timing.

Intro:
Guitar 1
e|-----------------------|
B|-2h4p2-----5---4---2-4-|
G|-------4---4---4---4-4-|
D|-----------------------|
A|-----------------------|
E|-----------------------| (x4)

Guitar 2
e|-----------------------|-----------------------|-----------------------|-----------------------|
B|-----------------------|-----------------------|-----------------------|-----------------------|
G|-------4-4-4-4-4-4-4-4-|-------4-4-4-4-4-4-4-4-|-----------------------|-------4-4-4-4-4-4-4-4-|
D|-4-4-4-4-4-4-4-4-4-4-4-|-4-4-4-4-4-4-4-4-4-4-4-|-4-4-4-6-6-6-6-6-2-2-2-|-4-4-4-4-4-4-4-4-4-4-4-|
A|-4-4-4-2-2-2-2-2-2-2-2-|-4-4-4-2-2-2-2-2-2-2-2-|-4-4-4-6-6-6-6-6-2-2-2-|-4-4-4-2-2-2-2-2-2-2-2-|
E|-2-2-2-----------------|-2-2-2-----------------|-2-2-2-4-4-4-4-4-0-0-0-|-2-2-2-----------------|

Verse 1:
Guitar 1
e|-----------------|-----------------|-----------------|------------------|
B|-----------------|-----------------|-----------------|------------------|
G|-4-4-4-4-4-4-4-4-|-9-9-9-9-9-9-9-9-|-4-4-4-4-9-9-9-9-|-4-4-4-4-9-9-9-11-|
D|-x-x-x-x-x-x-x-x-|-x-x-x-x-x-x-x-x-|-x-x-x-x-x-x-x-x-|-x-x-x-x-x-x-x-x--|
A|-2-2-2-2-2-2-2-2-|-7-7-7-7-7-7-7-7-|-2-2-2-2-7-7-7-7-|-2-2-2-2-7-7-7-9--|
E|-----------------|-----------------|-----------------|------------------|

e|-----------------|-----------------|-----------------|-----------------|
B|-----------------|-----------------|-----------------|-----------------|
G|-4-4-4-4-4-4-4-4-|-9-9-9-9-9-9-9-9-|-4-4-4-4-9-9-9-9-|-4-4-4-4-4-4-4-3-|
D|-x-x-x-x-x-x-x-x-|-x-x-x-x-x-x-x-x-|-x-x-x-x-x-x-x-x-|-x-x-x-x-x-x-x-x-|
A|-2-2-2-2-2-2-2-2-|-7-7-7-7-7-7-7-7-|-2-2-2-2-7-7-7-7-|-2-2-2-2-2-2-2-1-|
E|-----------------|-----------------|-----------------|-----------------|

Guitar 2
e|-----------------|-----------------|-----------------|-----------------|
B|-----------------|-----------------|-----------------|-----------------|
G|-----------------|-9---------------|-4---------------|-----------------|
D|-6---------------|-9---------------|-4---------------|-----------------|
A|-6---------------|-7---------------|-2---------------|-----------------|
E|-4---------------|-----------------|-----------------|-----------------| (x2)

Chorus 1:
Guitar 1
e|-----------------|-----------------|-----------------|-----------------|
B|-----------------|-----------------|-----------------|-----------------|
G|-9-9-9-9-9-9-9-9-|-8-8-8-8-8-8-8-8-|-3-3-3-3-3-3-3-3-|-4-4-4-4-4-4-8-6-|
D|-x-x-x-x-x-x-x-x-|-x-x-x-x-x-x-x-x-|-x-x-x-x-x-x-x-x-|-x-x-x-x-x-x-x-x-|
A|-7-7-7-7-7-7-7-7-|-6-6-6-6-6-6-6-6-|-1-1-1-1-1-1-1-1-|-2-2-2-2-2-2-6-4-|
E|-----------------|-----------------|-----------------|-----------------|

e|-----------------|-----------------|-----------------|-----------------|
B|-----------------|-----------------|-----------------|-----------------|
G|-9-9-9-9-9-9-9-9-|-8-8-8-8-8-8-8-8-|-3-3-3-3-3-3-3-3-|-3-3-3-3-3-3-8-6-|
D|-x-x-x-x-x-x-x-x-|-x-x-x-x-x-x-x-x-|-x-x-x-x-x-x-x-x-|-x-x-x-x-x-x-x-x-|
A|-7-7-7-7-7-7-7-7-|-6-6-6-6-6-6-6-6-|-1-1-1-1-1-1-1-1-|-1-1-1-1-1-1-6-4-|
E|-----------------|-----------------|-----------------|-----------------| (All x2)

Guitar 2
e|-----------------|-----------------|-----------------|-----------------|
B|-----------------|-----------------|-----------------|-----------------|
G|-9-9-9-9-9-9-9-9-|-----------------|-----------------|-----------------|
D|-9-9-9-9-9-9-9-9-|-9-9-9-9-9-9-9-9-|-4-4-4-4-4-4-4-4-|-6-6-6-6-6-6-6-6-|
A|-7-7-7-7-7-7-7-7-|-9-9-9-9-9-9-9-9-|-4-4-4-4-4-4-4-4-|-6-6-6-6-6-6-6-6-|
E|-----------------|-7-7-7-7-7-7-7-7-|-2-2-2-2-2-2-2-2-|-4-4-4-4-4-4-4-4-|

e|-----------------|-----------------|-----------------|-----------------|
B|-----------------|-----------------|-----------------|-----------------|
G|-9-9-9-9-9-9-9-9-|-----------------|-----------------|-----------------|
D|-9-9-9-9-9-9-9-9-|-9-9-9-9-9-9-9-9-|-4-4-4-4-4-4-4-4-|-4-4-4-4-4-4-4-4-|
A|-7-7-7-7-7-7-7-7-|-9-9-9-9-9-9-9-9-|-4-4-4-4-4-4-4-4-|-4-4-4-4-4-4-4-4-|
E|-----------------|-7-7-7-7-7-7-7-7-|-2-2-2-2-2-2-2-2-|-2-2-2-2-2-2-2-2-| (All x2)

Post Chorus:
Guitar 1
e|-----------------|-----------------|-----------------|-----------------|
B|-4-4-4-4-4-4-4-4-|-5-5-5-5-5-5-5-5-|-4-4-4-4-4-4-4-4-|-5-5-5-5-5-5-5-5-|
G|-4-4-4-4-4-4-4-4-|-4-4-4-4-4-4-4-4-|-4-4-4-4-4-4-4-4-|-4-4-4-4-4-4-4-4-|
D|-----------------|-----------------|-----------------|-----------------|
A|-----------------|-----------------|-----------------|-----------------|
E|-----------------|-----------------|-----------------|-----------------|

Guitar 2
e|-----------------|-----------------|-----------------|-----------------|
B|-----------------|-----------------|-----------------|-----------------|
G|-4---------------|-----------------|-----------------|-----------------|
D|-4---------------|-----------------|-----------------|-----------------|
A|-2---------------|-----------------|-----------------|-----------------|
E|-----------------|-----------------|-----------------|-----------------|

Verse 2:
Guitar 1
e|-----------------|-----------------|-----------------|-----------------|
B|-----------------|-----------------|-----------------|-----------------|
G|-4-4-4-4-4-4-4-4-|-4-4-4-4-4-4-4-4-|-8-8-8-8-8-8-8-8-|-8-8-8-8-8-8-8-9-|
D|-x-x-x-x-x-x-x-x-|-x-x-x-x-x-x-x-x-|-x-x-x-x-x-x-x-x-|-x-x-x-x-x-x-x-x-|
A|-2-2-2-2-2-2-2-2-|-2-2-2-2-2-2-2-2-|-6-6-6-6-6-6-6-6-|-6-6-6-6-6-6-6-7-|
E|-----------------|-----------------|-----------------|-----------------|

e|-----------------|-----------------|-----------------|-----------------|
B|-----------------|-----------------|-----------------|-----------------|
G|-4-4-4-4-4-4-4-4-|-9-9-9-9-9-9-9-9-|-4-4-4-4-9-9-9-9-|-4-4-4-4-4-4-4-3-|
D|-x-x-x-x-x-x-x-x-|-x-x-x-x-x-x-x-x-|-x-x-x-x-x-x-x-x-|-x-x-x-x-x-x-x-x-|
A|-2-2-2-2-2-2-2-2-|-7-7-7-7-7-7-7-7-|-2-2-2-2-7-7-7-7-|-2-2-2-2-2-2-2-1-|
E|-----------------|-----------------|-----------------|-----------------|

Guitar 2
e|-----------------|-----------------|-----------------|-----------------|
B|-----------------|-----------------|-----------------|-----------------|
G|-----------------|-9-9-9-9-9-9-9-9-|-4-4-4-4-4-4-4-4-|-4-4-4-4-4-4-4-4-|
D|-6-6-6-6-6-6-6-6-|-9-9-9-9-9-9-9-9-|-4-4-4-4-4-4-4-4-|-4-4-4-4-4-4-4-4-|
A|-6-6-6-6-6-6-6-6-|-7-7-7-7-7-7-7-7-|-2-2-2-2-2-2-2-2-|-2-2-2-2-2-2-2-2-|
E|-4-4-4-4-4-4-4-4-|-----------------|-----------------|-----------------| (x2)
   . . .  .  .   . . .  .  .   . . .  .  .   . . .  .  .

Chorus 2:
Guitar 1
e|-----------------|-----------------|-----------------|-----------------|
B|-----------------|-----------------|-----------------|-----------------|
G|-9-9-9-9-9-9-9-9-|-8-8-8-8-8-8-8-8-|-3-3-3-3-3-3-3-3-|-4-4-4-4-4-4-8-6-|
D|-x-x-x-x-x-x-x-x-|-x-x-x-x-x-x-x-x-|-x-x-x-x-x-x-x-x-|-x-x-x-x-x-x-x-x-|
A|-7-7-7-7-7-7-7-7-|-6-6-6-6-6-6-6-6-|-1-1-1-1-1-1-1-1-|-2-2-2-2-2-2-6-4-|
E|-----------------|-----------------|-----------------|-----------------|

e|-----------------|-----------------|-----------------|-----------------|
B|-----------------|-----------------|-----------------|-----------------|
G|-9-9-9-9-9-9-9-9-|-8-8-8-8-8-8-8-8-|-3-3-3-3-3-3-3-3-|-3-3-3-3-3-3-8-6-|
D|-x-x-x-x-x-x-x-x-|-x-x-x-x-x-x-x-x-|-x-x-x-x-x-x-x-x-|-x-x-x-x-x-x-x-x-|
A|-7-7-7-7-7-7-7-7-|-6-6-6-6-6-6-6-6-|-1-1-1-1-1-1-1-1-|-1-1-1-1-1-1-6-4-|
E|-----------------|-----------------|-----------------|-----------------| (All x2)

Guitar 2
e|-----------------|-----------------|-----------------|-----------------|
B|-----------------|-----------------|-----------------|-----------------|
G|-9-9-9-9-9-9-9-9-|-----------------|-----------------|-----------------|
D|-9-9-9-9-9-9-9-9-|-9-9-9-9-9-9-9-9-|-4-4-4-4-4-4-4-4-|-6-6-6-6-6-6-6-6-|
A|-7-7-7-7-7-7-7-7-|-9-9-9-9-9-9-9-9-|-4-4-4-4-4-4-4-4-|-6-6-6-6-6-6-6-6-|
E|-----------------|-7-7-7-7-7-7-7-7-|-2-2-2-2-2-2-2-2-|-4-4-4-4-4-4-4-4-|

e|-----------------|-----------------|-----------------|-----------------|
B|-----------------|-----------------|-----------------|-----------------|
G|-9-9-9-9-9-9-9-9-|-----------------|-----------------|-----------------|
D|-9-9-9-9-9-9-9-9-|-9-9-9-9-9-9-9-9-|-4-4-4-4-4-4-4-4-|-4-4-4-4-4-4-4-4-|
A|-7-7-7-7-7-7-7-7-|-9-9-9-9-9-9-9-9-|-4-4-4-4-4-4-4-4-|-4-4-4-4-4-4-4-4-|
E|-----------------|-7-7-7-7-7-7-7-7-|-2-2-2-2-2-2-2-2-|-2-2-2-2-2-2-2-2-| (All x2)

Bridge:
e|-----------------|-----------------|-----------------|-----------------|
B|-----------------|-----------------|-----------------|-----------------|
G|-9-9-9-9-9-9-9-9-|-9-9-9-9-9-9-9-9-|-4-4-4-4-4-4-4-4-|-4-4-4-4-4-4-4-4-|
D|-9-9-9-9-9-9-9-9-|-9-9-9-9-9-9-9-9-|-4-4-4-4-4-4-4-4-|-4-4-4-4-4-4-4-4-|
A|-7-7-7-7-7-7-7-7-|-7-7-7-7-7-7-7-7-|-2-2-2-2-2-2-2-2-|-2-2-2-2-2-2-2-2-|
E|-----------------|-----------------|-----------------|-----------------| x3

e|-----------------|-----------------|-------------------------|-------------------------|
B|-----------------|-----------------|-------------------------|-------------------------|
G|-9-9-9-9-9-9-9-9-|-9-9-9-9-9-9-9-9-|-11-11-11-11-11-11-11-11-|-11-11-11-11-11-11-11-11-|
D|-x-x-x-x-x-x-x-x-|-x-x-x-x-x-x-x-x-|-x--x--x--x--x--x--x--x--|-x--x--x--x--x--x--x--x--|
A|-7-7-7-7-7-7-7-7-|-7-7-7-7-7-7-7-7-|-9--9--9--9--9--9--9--9--|-9--9--9--9--9--9--9--9--|
E|-----------------|-----------------|-------------------------|-------------------------|

e|-------------------------|-------------------------|
B|-------------------------|-------------------------|
G|-11-11-11-11-11-11-11-11-|-11-11-11-11-11-11-11-11-|
D|-x--x--x--x--x--x--x--x--|-x--x--x--x--x--x--x--x--|
A|-9--9--9--9--9--9--9--9--|-9--9--9--9--9--9--9--9--|
E|-------------------------|-------------------------|

Chorus 3:
Guitar 1
e|-----------------|-----------------|-----------------|-----------------|
B|-5-5-5-5-5-5-5-5-|-4-4-4-4-4-4-4-4-|-7-7-7-7-7-7-7-7-|-5-5-5-5-5-5-5-5-|
G|-4-4-4-4-4-4-4-4-|-4-4-4-4-4-4-4-4-|-4-4-4-4-4-4-4-4-|-4-4-4-4-4-4-4-4-|
D|-----------------|-----------------|-----------------|-----------------|
A|-----------------|-----------------|-----------------|-----------------|
E|-----------------|-----------------|-----------------|-----------------|

e|-----------------|-----------------|-----------------|-----------------|
B|-5-5-5-5-5-5-5-5-|-4-4-4-4-4-4-4-4-|-7-7-7-7-7-7-7-7-|-5---------------|
G|-4-4-4-4-4-4-4-4-|-4-4-4-4-4-4-4-4-|-4-4-4-4-4-4-4-4-|-4---------------|
D|-----------------|-----------------|-----------------|-----------------|
A|-----------------|-----------------|-----------------|-----------------|
E|-----------------|-----------------|-----------------|-----------------|

Guitar 2
e|-----------------|-----------------|-----------------|-----------------|
B|-----------------|-----------------|-----------------|-----------------|
G|-----------------|-----------------|-----------------|-----------------|
D|-2---------------|-----------------|-----------------|-----------------|
A|-2---------------|-----------------|-----------------|-----------------|
E|-0---------------|-----------------|-----------------|-----------------|

e|-----------------|-----------------|-----------------|-----------------|
B|-----------------|-----------------|-----------------|-----------------|
G|-9-9-9-9-9-9-9-9-|-9-9-9-9-9-9-9-9-|-----------------|-----------------|
D|-9-9-9-9-9-9-9-9-|-9-9-9-9-9-9-9-9-|-6-6-6-6-6-6-6-6-|-4---------------|
A|-7-7-7-7-7-7-7-7-|-7-7-7-7-7-7-7-7-|-6-6-6-6-6-6-6-6-|-4---------------|
E|-----------------|-----------------|-4-4-4-4-4-4-4-4-|-2---------------|

e|-----------------|
B|-----------------|
G|-----------------|
D|-4-4-4---6---4---|
A|-4-4-4---6---4---|
E|-2-2-2---4---2---|

Chorus 4:
Guitar 1
e|-----------------|-----------------|-----------------|-----------------|
B|-----------------|-----------------|-----------------|-----------------|
G|-9-9-9-9-9-9-9-9-|-8-8-8-8-8-8-8-8-|-3-3-3-3-3-3-3-3-|-4-4-4-4-4-4-8-6-|
D|-x-x-x-x-x-x-x-x-|-x-x-x-x-x-x-x-x-|-x-x-x-x-x-x-x-x-|-x-x-x-x-x-x-x-x-|
A|-7-7-7-7-7-7-7-7-|-6-6-6-6-6-6-6-6-|-1-1-1-1-1-1-1-1-|-2-2-2-2-2-2-6-4-|
E|-----------------|-----------------|-----------------|-----------------|

e|-----------------|-----------------|-----------------|-----------------|
B|-----------------|-----------------|-----------------|-----------------|
G|-9-9-9-9-9-9-9-9-|-8-8-8-8-8-8-8-8-|-3-3-3-3-3-3-3-3-|-3-3-3-3-3-3-8-6-|
D|-x-x-x-x-x-x-x-x-|-x-x-x-x-x-x-x-x-|-x-x-x-x-x-x-x-x-|-x-x-x-x-x-x-x-x-|
A|-7-7-7-7-7-7-7-7-|-6-6-6-6-6-6-6-6-|-1-1-1-1-1-1-1-1-|-1-1-1-1-1-1-6-4-|
E|-----------------|-----------------|-----------------|-----------------| (All x2)

Guitar 2
e|-----------------|-----------------|-----------------|-----------------|
B|-----------------|-----------------|-----------------|-----------------|
G|-9-9-9-9-9-9-9-9-|-----------------|-----------------|-----------------|
D|-9-9-9-9-9-9-9-9-|-9-9-9-9-9-9-9-9-|-4-4-4-4-4-4-4-4-|-6-6-6-6-6-6-6-6-|
A|-7-7-7-7-7-7-7-7-|-9-9-9-9-9-9-9-9-|-4-4-4-4-4-4-4-4-|-6-6-6-6-6-6-6-6-|
E|-----------------|-7-7-7-7-7-7-7-7-|-2-2-2-2-2-2-2-2-|-4-4-4-4-4-4-4-4-|

e|-----------------|-----------------|-----------------|-----------------|
B|-----------------|-----------------|-----------------|-----------------|
G|-9-9-9-9-9-9-9-9-|-----------------|-----------------|-----------------|
D|-9-9-9-9-9-9-9-9-|-9-9-9-9-9-9-9-9-|-4-4-4-4-4-4-4-4-|-4-4-4-4-4-4-4-4-|
A|-7-7-7-7-7-7-7-7-|-9-9-9-9-9-9-9-9-|-4-4-4-4-4-4-4-4-|-4-4-4-4-4-4-4-4-|
E|-----------------|-7-7-7-7-7-7-7-7-|-2-2-2-2-2-2-2-2-|-2-2-2-2-2-2-2-2-| (All x2)

Outro:
Guitar 1
e|-----------------------|
B|-2h4p2-----5---4---2-4-|
G|-------4---4---4---4-4-|
D|-----------------------|
A|-----------------------|
E|-----------------------| (x7)

Guitar 2
e|-----------------------|-----------------------|-----------------------|-----------------------|
B|-----------------------|-----------------------|-----------------------|-----------------------|
G|-------4-4-4-4-4-4-4-4-|-------4-4-4-4-4-4-4-4-|-----------------------|-------4-4-4-4-4-4-4-4-|
D|-4-4-4-4-4-4-4-4-4-4-4-|-4-4-4-4-4-4-4-4-4-4-4-|-4-4-4-6-6-6-6-6-2-2-2-|-4-4-4-4-4-4-4-4-4-4-4-|
A|-4-4-4-2-2-2-2-2-2-2-2-|-4-4-4-2-2-2-2-2-2-2-2-|-4-4-4-6-6-6-6-6-2-2-2-|-4-4-4-2-2-2-2-2-2-2-2-|
E|-2-2-2-----------------|-2-2-2-----------------|-2-2-2-4-4-4-4-4-0-0-0-|-2-2-2-----------------|

e|-----------------------|-----------------------|-----------------------|
B|-----------------------|-----------------------|-----------------------|
G|-------4-4-4-4-4-4-4-4-|-------4-4-4-4-4-4-4-4-|-----------------------|
D|-4-4-4-4-4-4-4-4-4-4-4-|-4-4-4-4-4-4-4-4-4-4-4-|-4-4-4-6-6-6-6-6-2-2-2-|
A|-4-4-4-2-2-2-2-2-2-2-2-|-4-4-4-2-2-2-2-2-2-2-2-|-4-4-4-6-6-6-6-6-2-2-2-|
E|-2-2-2-----------------|-2-2-2-----------------|-2-2-2-4-4-4-4-4-0-0-0-|

Ending:
Guitar 1
e|-----------------------|
B|-2h4p2-----------------|
G|-------4---------------|
D|-----------------------|
A|-----------------------|
E|-----------------------|

Guitar 2
e|-----------------------|
B|-----------------------|
G|-------4---------------|
D|-4-4-4-4---------------|
A|-4-4-4-2---------------|
E|-2-2-2-----------------|


***********************************
| x  Deadnote
| h  Hammer On
| p  Pull Off
***********************************

Other versions of Chameleon

Alternative guitar chords and tabs for Chameleon by Millencolin

Find guitar tabs and chords

A B C D E F G H I J K L M N O P Q R S T U V W X Y Z #