Log in

One click and you are in

Login with Facebook Login with Google

Why sign up and log in

Guitar Tabs Explorer
Mild High Club bass tabs for Homage

Bass tabs

Tuning: Standard (E A D G)


Intro:

G|------------|----5-3-2-0-|------------|-----3-2-0--|-----------|-----2-0----|
D|-5-----5-3--|---5--------|-3-----3----|---3------3-|-2-----2---|---2----3-2-|
A|---4-5----4-|-3----------|---2-3--3-2-|-1----------|---0-1--1--|-0----------|
E|------------|------------|------------|------------|---------4-|------------|

G|------------|------------|
D|-0----------|---------7--|
A|--------5---|-5-----5----|
E|---4-5----5-|---4-5------|
Verse:

G|------------|----5-3-2-0-|------------|-----3-2-0--|-----------|-----2-0----|
D|-------5-3--|---5--------|-3-----3----|---3------3-|-2-----2---|---2----3-2-|
A|---4-5----4-|-3----------|---2-3--3-2-|-1----------|---0-1--1--|-0----------|
E|-3----------|------------|------------|------------|---------4-|------------|

G|------------|------------|
D|-0----------|---------7--|
A|--------5---|-5-----5----|
E|---4-5----5-|---4-5------|


Chorus:

G|-----------|-------------|--------------|--------10--13\-|------10\-|-------10-|
D|---------3-|---------3---|--------------|-9--12----------|----------|----------|
A|-----3h5---|-----3/5---5-|--------8--11-|----------------|-8--------|-8--------|
E|---6-------|-6-6---------|-7--10--------|----------------|----------|----------|

G|-------------|-------|-----------|-------------|--------------|---------10-----|
D|-------------|-------|---------3-|---------3---|--------------|-9---12-----12--|
A|-------------|-------|-----3h5---|-----3/5--5--|--------8--11-|----------------|
E|-6--6--6-4-3-|-------|-6-6-------|-6-6---------|-7--10--------|----------------|

G|------10\-|-------10-|----------|----------|----------|----------|-------------|
D|----------|----------|--------8-|----------|----------|----------|-------------|
A|-8--------|-8--------|----------|----------|-1------1-|----------|-------1--4--|
E|----------|----------|-6--------|--6-------|------1---|-4----1-4-|-2--4------2-|

G|---------------|-----------|-----------|-----------|-----------|---------------|
D|---------------|--------11-|-----------|--------11-|---------9-|---------8--11-|
A|-------4--7----|-----------|--------12-|-----------|-----------|-9--11---------|
E|-5--7--------9-|-9---------|-9---------|-9---------|-9---------|---------------|

G|----------------|-------------|------------|
D|-10----------10-|-8-----------|----------4-|
A|-----11--8------|----8------8-|-1--3--5----|
E|----------------|-------10----|------------|

Guitar Solo:

G|------------|----5-3-2-0-|------------|-----3-2-0--|-----------|-----2-0----|
D|-5-----5-3--|---5--------|-3-----3----|----3-----3-|-2-----2---|---2----3-2-|
A|---4-5----4-|-3----------|---2-3--3-2-|-1----------|---0-1--1--|-0----------|
E|------------|------------|------------|------------|---------4-|------------|

G|------------|------------|------------|----5-3-2-0-|-----------|-----3-2-0--|
D|-0----------|---------7--|-------5-3--|---5--------|-3----3----|----3-----3-|
A|--------5---|-5-----5----|---4-5----4-|-3----------|--2-3--3-2-|-1----------|
E|---4-5----5-|---4-5------|-3----------|------------|-----------|------------|

G|------------|-----2-0----|------------|------------|
D|-2------2---|---2----3-2-|-0----------|---------7--|
A|---0-1---1--|-0----------|--------5---|-5-----5----|
E|----------4-|------------|---4-5----5-|---4-5------|

Chorus:

G|-----------|-------------|--------------|--------10--13\-|------10\-|-------10-|
D|---------3-|---------3---|--------------|-9--12----------|----------|----------|
A|-----3h5---|-----3/5---5-|--------8--11-|----------------|-8--------|-8--------|
E|---6-------|-6-6---------|-7--10--------|----------------|----------|----------|

G|-------------|-------|-----------|-------------|--------------|---------10-----|
D|-------------|-------|---------3-|---------3---|--------------|-9---12-----12--|
A|-------------|-------|-----3h5---|-----3/5--5--|--------8--11-|----------------|
E|-6--6--6-4-3-|-------|-6-6-------|-6-6---------|-7--10--------|----------------|

G|------10\-|-------10-|----------|----------|----------|----------|-------------|
D|----------|----------|-------8--|----------|----------|----------|-------------|
A|-8--------|-8--------|----------|----------|-1-----1--|----------|-------1--4--|
E|----------|----------|-6--------|--6-------|------1---|-4----1-4-|-2--4------2-|

G|---------------|-----------|-----------|-----------|-----------|---------------|
D|---------------|--------11-|-----------|--------11-|---------9-|---------8--11-|
A|-------4--7----|-----------|--------12-|-----------|-----------|-9--11---------|
E|-5--7--------9-|-9---------|-9---------|-9---------|-9---------|---------------|

G|----------------|-------------|------------|
D|-10----------10-|-8-----------|----------4-|
A|-----11--8------|----8------8-|-1--3--5----|
E|----------------|-------10----|------------|


Outro:

G|------------|----5-3-2-0-|------------|-----3-2-0--|-----------|-----2-0----|
D|-5-----5-3--|---5--------|-3-----3----|---3------3-|-2-----2---|---2----3-2-|
A|---4-5----4-|-3----------|---2-3--3-2-|-1----------|---0-1--1--|-0----------|
E|------------|------------|------------|------------|---------4-|------------|

G|------------|------------|
D|-0----------|------------|
A|--------5---|-5------5---|
E|---4-5----5-|----4-5---5-|

************************************

| h  Hammer-on
| /  Slide up
| \  Slide down

************************************

Almost there ...

Sign in to get your own page with links to favourite songs and more. You are just one click away...

Login with Facebook Login with Google