Log in

One click and you are in

Login with Facebook Login with Google

Why sign up and log in

Guitar Tabs Explorer
Miky Mora bass tabs for Co

Bass tabs

Key: Gm


Chorus:

G|---------------------|
D|---------------------|
A|7----8----7--7----5--|
E|---------------------| x2

Verse 1:

G|---------------------|
D|---------------------|
A|7----8----7--7----5--|
E|---------------------| x16


Chorus:

G|---------------------|
D|---------------------|
A|7----8----7--7----5--|
E|---------------------| x8


Verse 2:

G|---------------------|
D|---------------------|
A|7----8----7--7----5--|
E|---------------------| x16


Chorus:

G|---------------------|
D|---------------------|
A|7----8----7--7----5--|
E|---------------------| x4


Verse 3:

G|---------------------|
D|---------------------|
A|7----8----7--7----5--|
E|---------------------| x16


Outro:

G|---------------------|
D|---------------------|
A|7----8----7--7----5--|
E|---------------------| x32

G|---------------------|
D|---------------------|
A|7--------------------|
E|---------------------|


Cheers and enjoy!
Roland

Almost there ...

Sign in to get your own page with links to favourite songs and more. You are just one click away...

Login with Facebook Login with Google