Log in

One click and you are in

Login with Facebook Login with Google

Why sign up and log in

Guitar Tabs Explorer
Mike Shinoda bass tabs for Place to start

Bass tabs

Tuning: Drop D (D A D G)

Place To Start - Bass Tab


Tuning: Dropped D

0:04-0:59:
G|------------------------------------------------------------|
D|-----------------------------------4--------4---------------|
A|---------------5--5--0--2-----------------------------------| x6
D|-5--------0----------------------4---4-4---------4----------|

1:00-1:26:
G|------------------------------------------------------------|
D|------------------------------4-----------------------------|
A|-------------------2----------------------------------------| x3
D|-5--------0-----------------4---4-4-------------------------|

1:27:
G|----------|
D|----------|
A|----------|
D|-5--------|

Almost there ...

Sign in to get your own page with links to favourite songs and more. You are just one click away...

Login with Facebook Login with Google