Log in

One click and you are in

Login with Facebook Login with Google

Why sign up and log in

Guitar Tabs Explorer
Mika bass tabs for Stuck in the middle

Bass tabs

-------------------------------------------------------------------------------
			   MIKA - Stuck in the middle
-------------------------------------------------------------------------------

Tabbed By : staubfinger
e-mail: saph1ra@web.de
Tuning: standart


Intro

G|---7---7-----------5---5-----------------------------------------------|
D|-----------5---5-----------3---2---------------------------------------|
A|-5---5-----------3---3-------------------------------------------------|
E|---------3---3-----------1---0-----------------------------------------|


Verse

G|---7--------5-------------------------------5--------------------------|
D|-------54-------32------------------5---5------------------------------|
A|-5--------3-------------------------------3---3~-----------------------|
E|-----3--------1-------------------3---3--------------------------------|


Refrain

G|---10---10--------------7---7-------5----------------------------------|
D|-------------10-----------------5--------------------------------------|
A|-8----8---------8-8-7-5---5-------3------------------------------------|
E|-----------8------------------3----------------------------------------|


Intro again

Verse


Refrain


Intro


Bridge

G|---5---5---3---3-----------5---5------5---5---3---3----------------5----|
D|-------------------3---3------------------------------3---3---5---------|
A|-3---3---1---1-----------3---3------3---3---1---1---------------23------|
E|-----------------1---1------------------------------1---1---3-----------|


Refrain


Intro: fade out...

Very easy, but funny song. Hope you enjoy playing it :)

| / slide up
| \ slide down
| h hammer-on
| p pull-off
| ~ vibrato
| + harmonic
| x Mute note

Almost there ...

Sign in to get your own page with links to favourite songs and more. You are just one click away...

Login with Facebook Login with Google