Log in

One click and you are in

Login with Facebook Login with Google

Why sign up and log in

Guitar Tabs Explorer
Mika guitar tabs for Relax take it easy

Guitar tabs with lyrics

Lovely song by Mika.

                               Relax
Intro:
e--9--9--9--9--9--9--\-10-10-10--9--9--9--\-7--7--7--7--7--7--\
B--10-10-10-10-10-10-\-10-10-10-10-10-10--\-9--9--9--9--9--9--\
B--11-11-11-11-11-11-\-11-11-11-11-11-11--\-9--9--9--9--9--9--\
D--------------------\--------------------\-------------------\
A--------------------\--------------------\-------------------\
E--------------------\--------------------\-------------------\


e--9--9--9--7--7--7--\
B--10-10-10-9--9--9--\
G--11-11-11-9--9--9--\
D--------------------\
A--------------------\
E--------------------\

e--9--9--9--9--9--9--\-10-10-10-10-10-10--\--10-10-10-10-10-10--\
B--10-10-10-10-10-10-\-10-10-10-10-10-10--\--10-10-10-10-10-10--\
B--11-11-11-11-11-11-\-11-11-11-11-11-11--\--11-11-11-11-11-11--\
D--------------------\--------------------\---------------------\
A--------------------\--------------------\---------------------\
E--------------------\--------------------\---------------------\
  Took a ride       to the end of the line    Where no one ever
  Ended up          on a broken train with    nobody I


e-7--7--7--7--7--7--\
B-9--9--9--9--9--9--\
G-9--9--9--9--9--9--\
D-------------------\
A-------------------\
E-------------------\
  goes.
  know.

e---------------\---------------\--9--9--9--9--9--9--\--9--9--9--9--9--9--\
B--7-7-7-7-7-7--\--9-9-9-9-9-9--\--10-10-10-10-10-10-\--10-10-10-10-10-10-\
G--7-7-7-7-7-7--\--9-9-9-9-9-9--\--11-11-11-11-11-11-\--11-11-11-11-11-11-\
D--7-7-7-7-7-7--\--9-9-9-9-9-9--\--------------------\--------------------\
A---------------\---------------\--------------------\--------------------\
E---------------\---------------\--------------------\--------------------\
But the pain  and the longing's the same   Where the dying
Now I'm lost  and I'm screaming for help alone  Relax            take it

e-10-10-10--9--9--9--\-7--7--7--7--7--7--\--9--9--9--7--7--7----\
B-10-10-10-10-10-10--\-9--9--9--9--9--9--\--10-10-10-9--9--9----\
G-11-11-11-11-11-11--\-9--9--9--9--9--9--\--11-11-11-9--9--9----\
D--------------------\-------------------\----------------------\
A--------------------\-------------------\----------------------\
E--------------------\-------------------\----------------------\
 easy                          For there is nothing that we can do.

e--9--9--9--9--9--9--\-10-10-10--9--9--9--\-7--7--7--7--7--7--\
B--10-10-10-10-10-10-\-10-10-10-10-10-10--\-9--9--9--9--9--9--\
B--11-11-11-11-11-11-\-11-11-11-11-11-11--\-9--9--9--9--9--9--\
D--------------------\--------------------\-------------------\
A--------------------\--------------------\-------------------\
E--------------------\--------------------\-------------------\
Relax            take it easy                      Blame it on me


e--9--9--9--7--7--7--\
B--10-10-10-9--9--9--\
G--11-11-11-9--9--9--\
D--------------------\
A--------------------\
E--------------------\
or blame it on you.


e--9--9--9--9--9--9--\-10-10-10--9--9--9--\-7--7--7--7--7--7--\
B--10-10-10-10-10-10-\-10-10-10-10-10-10--\-9--9--9--9--9--9--\
G--11-11-11-11-11-11-\-11-11-11-11-11-11--\-9--9--9--9--9--9--\
D--------------------\--------------------\-------------------\
A--------------------\--------------------\-------------------\
E--------------------\--------------------\-------------------\
It's as if I'm scared  It's as if I'm terrified  It's as if I scared
Scared                 It's as if I'm terrified  Are you scared?


e--9--9--9--7--7--7--\
B--10-10-10-9--9--9--\
G--11-11-11-9--9--9--\
D--------------------\
A--------------------\
E--------------------\
It's as if I'm playing with fire
Are we playing with fire?


Relax
There is an answer to the darkest times
It's clear we don't understand it but the last thing on my mind
Is to leave you
I believe that we're in this together
Don't scream - there are so many roads left

Relax, take it easy
For there is nothing that we can do
Relax, take it easy
Blame it on me or blame it on you

Relax, take it easy
For there is nothing that we can do
Relax, take it easy
Blame it on me or blame it on you

It's as if I'm scared
It's as if I'm terrified
It's as if I scared
It's as if I'm playing with fire (relax)
Scared
It's as if I'm terrified
Are you scared?
Are we playing with fire?
Relax.

Relax is one of my favorite songs. Its true i've hear laugh when I sing but I don't
I like it and I hope you will like it too.Enjoy the song.

Other versions of Relax Take It Easy

Relax take it easyChords
Relax take it easy (Ver. 2)Chords

Almost there ...

Sign in to get your own page with links to favourite songs and more. You are just one click away...

Login with Facebook Login with Google