Log in

One click and you are in

Login with Facebook Login with Google

Why sign up and log in

Guitar Tabs Explorer
Mighty Zep tabs for Ten years gone

Guitar tabs with lyrics

well here it is as promised I know a full tab would be preferred but
there are 5 simultanious guitar tracks on the album plus a sitar,bass
and drums and a full tab transcription would take five hours and be
about 50 k.So here is
the song in CRD/TAB basically for one guitar (how many of you have five
guitars in your band anywhay) the tab is NOT IN TIME.The chords simply
apppear in order.some chords play once others strum for two bars.And as
always lyrics appear at the end.Hold on tight and have fun!!

first of all its in drop A chord diagramD MajorD tuning  A chord diagramD MajorD A chord diagramA augmentedA A chord diagramD MajorD A chord diagramG+G A chord diagramBB A chord diagramE MajorE
                                  -1 . . . . .
 INTRO 4 X
> ------------------0------------------
> ---2---0-----0----3--------3---------
> ---2------2-------2------2---2-------
> ---2--------------3----3-------3-----
> ---0--------------0--0---------------
> -------------------------------------

 and then each chord twice

------------7-------------/-----------------
--2----1----8----7----5---/-----------------
--2----2----9----6----4---/-----------------
--2----1----9----7----5---/-------------3-2-
--0-----------------------/-------0-3-0-----
--------------------------/---2-3-----------

                                   repeat as nessicary
--------------------------------------------------------
--------------------------------------------------------
-----2--4--2---4--4--4--6--2----2--4--2---2--2--2--4--2-
-----2-----2---5--5--5-----4----4-----4---3--3--3-----2-
--0---------------------------0-------------------------
--------------------------------------------------------

back to intro for vocals

then the first solo
 (just the rythym chords in order of appearance)
-----------------------0--0--2--2-------------------
--5--7-----5--3--5--3--5--3--2--2--5--7--5--7--5--3-
--4--6--4--5--4--5--4--4--4--2--2--4--6--4--6--5--4-
--5--7--5--5--5--5--5--5--5--4--0--5--7--5--7--5--5-
--------------------5-------------------------------
----------------------------------------------------

--------0--------2--0--2--0-----------0-------------
--0--3--3--3--0--2--0--2--0--5--3--0--3--7--5--7--5-
--0--0--0--0--0--2--0--2--0--5--4--0--4--6--4--6--5-
--4--4-----4-----------------5--5--4--5--7--5--7--5-
----------------------------------------------------
----------------------------------------------------

-----2----------
--3--3--5--7----
--4--0--4--6----
--5--4--5--7----
----------------
----------------


youll never really need someone ETC.
-------------------------------------
-------------------------------------
--------------------0----------------
---s----------------0----------------
--5--7--9--7--5--0--2----------------
--5--7--9--7--5--0--4----------------

and the second solo
-----0--5--0--0--4---0--7--0---------
--9--7--7--7--0--5--10--7--0---------
--9--6--6--7--0--6--11--7--0---------
--7--7--7--5--2--6--12--5------------
-----5-----5--3--0------5--3---------
-----------5------------5------------

and here are the lyrics


                             ENJOY ETAN ZOC     tndrfoot@xmission.com
    (P.S. this is from the official source so you can feel confident
in its accuracy on lyrics etc. and if you run into a snag just E-MAIL
away and ill fix you right up)

Almost there ...

Sign in to get your own page with links to favourite songs and more. You are just one click away...

Login with Facebook Login with Google