Log in

One click and you are in

Login with Facebook Login with Google

Why sign up and log in

Guitar Tabs Explorer
The Mighty Mighty Bosstones tabs for The impression that i get

The Impression That I Get tab by The Mighty Mighty Bosstones

The Mighty Mighty Bosstones tabs for The impression that i get

Guitar tabs with lyrics

ARTIST: The Mighty Mighty Bosstones
SONG: The Impression That I Get
ALBUM: Lets Face It
TRANSCRIBED BY: Derek Miller (synth@gte.net)
NOTES:
intro
-4--4--x--7--7--x--4--4--x--4--4--x--5--5--x--4--4--x--4--4--x--7--7--x--|------
-5--5--x--7--7--x--5--5--x--4--4--x--5--5--x--5--5--x--5--5--x--7--7--x--|------
-4--4--x--8--8--x--4--4--x--4--4--x--6--6--x--4--4--x--4--4--x--8--8--x--|------
-------------------------------------------------------------------------|------
-------------------------------------------------------------------------|------
-------------------------------------------------------------------------|------


trumpet starts
-4--4--x--7--7--x--4--4--x--4--4--x--5--5--x--4--4--x--4--4--x--7--7--|---------
-5--5--x--7--7--x--5--5--x--4--4--x--5--5--x--5--5--x--5--5--x--7--7--|---------
-4--4--x--8--8--x--4--4--x--4--4--x--6--6--x--4--4--x--4--4--x--8--8--|---------
----------------------------------------------------------------------|---------
----------------------------------------------------------------------|---------
----------------------------------------------------------------------|---------


verse
-x--4--x--4--x--7--x--7--x--5--x--5--|--x--4--x--4--x--7--x--7--x--5--x--5------
-x--5--x--5--x--7--x--7--x--5--x--5--|--x--5--x--5--x--7--x--7--x--5--x--5------
-x--4--x--4--x--8--x--8--x--6--x--6--|--x--4--x--4--x--8--x--8--x--6--x--6------
-------------------------------------|------------------------------------------
-------------------------------------|------------------------------------------
-------------------------------------|------------------------------------------

|--x--4--x--4--x--7--x--7--x--5--x--5--|--x--4--x--4--x--7--x--7--x--5--x--5----
|--x--5--x--5--x--7--x--7--x--5--x--5--|--x--5--x--5--x--7--x--7--x--5--x--5----
|--x--4--x--4--x--8--x--8--x--6--x--6--|--x--4--x--4--x--8--x--8--x--6--x--6----
|--------------------------------------|----------------------------------------
|--------------------------------------|----------------------------------------
|--------------------------------------|----------------------------------------


|--x--4--x--4--x--7--x--7--x--5--x--5--|--x--4--x--4--x--7--x--7--x--5--x--5----
|--x--5--x--5--x--7--x--7--x--5--x--5--|--x--5--x--5--x--7--x--7--x--5--x--5----
|--x--4--x--4--x--8--x--8--x--6--x--6--|--x--4--x--4--x--8--x--8--x--6--x--6----
|--------------------------------------|----------------------------------------
|--------------------------------------|----------------------------------------
|--------------------------------------|----------------------------------------
   have you ever been close to tragedy    or ....


|--x--4--x--4--x--7--x--7--x--5--x--5--|--x--4--x--4--x--7--x--7--x--5--x--5----
|--x--5--x--5--x--7--x--7--x--5--x--5--|--x--5--x--5--x--7--x--7--x--5--x--5----
|--x--4--x--4--x--8--x--8--x--6--x--6--|--x--4--x--4--x--8--x--8--x--6--x--6----
|--------------------------------------|----------------------------------------
|--------------------------------------|----------------------------------------
|--------------------------------------|----------------------------------------
   have you ever felt a pain so ...collapse

   pre-chorus                                             chorus
|---------------------------|--------------------------|------------------------
|---------------------------|--------------------------|------------------------
|---------------------------|--------------------------|------------------------
|---4--4--4--7--7--7--7--7--|--4--4--4--7--7--7--7--7--|---9--9--9--9--9--9-----
|---4--4--4--7--7--7--7--7--|--4--4--4--7--7--7--7--7--|---9--9--9--9--9--9-----
|---2--2--2--5--5--5--5--5--|--2--2--2--5--5--5--5--5--|---7--7--7--7--7--7-----
 (he says no a few times here....


------|--------------------------|--------------------------|-------------------
------|--------------------------|--------------------------|-------------------
------|--9--9--9--9--9--9--9--9--|--------------------------|-------------------
9--9--|--9--9--9--9--9--9--9--9--|--6--6--6--6--6--6--6--6--|--7--7--7--7--7----
9--9--|--7--7--7--7--7--7--7--7--|--6--6--6--6--6--6--6--6--|--7--7--7--7--7----
7--7--|--------------------------|--4--4--4--4--4--4--4--4--|--5--5--5--5--5----
on       wood, but i know someone   has, which ....
         who                        if i

---------|--------------------------|--------------------------|----------------
---------|--------------------------|--------------------------|----------------
---------|--------------------------|--9--9--9--9--9--9--9--9--|----------------
7--7--7--|--9--9--9--9--9--9--9--9--|--9--9--9--9--9--9--9--9--|--6--6--6--6----
7--7--7--|--9--9--9--9--9--9--9--9--|--7--7--7--7--7--7--7--7--|--6--6--6--6----
5--5--5--|--7--7--7--7--7--7--7--7--|--------------------------|--4--4--4--4----
me wonder   never had ....wood, ....im
if i                                   'nt

------------|--------------------------|
------------|--------------------------|
------------|--------------------------|
6--6--6--6--|--7--7--7--7--7--7--7--7--|
6--6--6--6--|--7--7--7--7--7--7--7--7--|
4--4--4--4--|--5--5--5--5--5--5--5--5--|
sure it isnt   good, thats the impr.....

2nd verse lyrics:
have you ever had the odds .....

(after the verse and chorus twice it goes into this part)

------------------------|--------------------------|--4--4--x--7--7--x--4--4----
------------------------|--------------------------|--5--5-----7--7-----5--5----
------------------------|--------------------------|--4--4-----8--8-----4--4----
4--4--4--7--7--7--7--7--|--4--4--4--7--7--7--7--7--|----------------------------
4--4--4--7--7--7--7--7--|--4--4--4--7--7--7--7--7--|----------------------------
2--2--2--5--5--5--5--5--|--2--2--2--5--5--5--5--5--|----------------------------
                                                      im not a .....just


x--4--4--x--5--5--x--4--4--x--4--4--x--7--7--x--|--4--4--x--7--7--x--4--4--x----
---4--4-----5--5-----5--5-----5--5-----7--7-----|--5--5-----7--7-----5--5-------
---4--4-----6--6-----4--4-----4--4-----8--8-----|--4--4-----8--8-----4--4-------
------------------------------------------------|-------------------------------
------------------------------------------------|-------------------------------
------------------------------------------------|-------------------------------
never been tested. but if .....(cant understand exactly what
id pass

4--4--x--5--5--x--4--4--x--4--4--x--7--7----------------------------------------
4--4-----5--5-----5--5-----5--5-----7--7----------------------------------------
4--4-----6--6-----4--4-----4--4-----8--8----------------------------------------
--------------------------------------------------------------------------------
--------------------------------------------------------------------------------
--------------------------------------------------------------------------------
he says here) --im afraid of .....

-back to chorus x2
-then to outro which has no guitar

Other versions of The Impression That I Get

The impression that I getChords

Almost there ...

Sign in to get your own page with links to favourite songs and more. You are just one click away...

Login with Facebook Login with Google