Royal Oil by The Mighty Mighty Bosstones

Royal Oil chords by The Mighty Mighty Bosstones

Guitar chords with lyrics

Song: Royal Oil
Artist:Mighty Mighty Bosstones
Album:Let's FAce It

         Tabbed by Rafael Amaral(ramaral@net.em.com.br)

Good song from the Mighty's, to play this song perfectly you will need
wah-wah pedal.This song is tuned one step up like this:F,Bb,Eb,Ab,C,F.
Anything tou wanna say to me e-mail me at ramaral@net.em.com.br

Intro:(bass)
G-----------------------------------------------------
D-----------------------------------------------------
A------------2--4--2-----2--2----2---4---2---0----0-0-
E---5-5---5-----------2-------------------------2-----
Guitar Intro:(after bass intro)(wah-wah)
F---7-7-7------------------------
C---7-7-7------------------------
G#--7-7-7----------2--4---2--2---
Eb-----------2--4----------------
Bb-------------------------------
F-------------------------------
Chorus:
  A  - Bm
F---5-5-5-5--7-7-7-7--
C---5-5-5-5--7-7-7-7--
Ab--6-6-6-6--7-7-7-7--
D#--------------------
Bb--------------------
F---------------------
A         Bm             A
Royal Oil, come on bubble and ...
            Bm
make you stagger On ...
A             Bm
Mind your mind or it will ...

Bridge:
  D - C#m - Bm
F---5-5--4-4---2-2-2-2-----
C---7-7--5-5---3-3-3-3-----
Ab--7-7--6-6---4-4-4-4-----
D#-------------------------
A#-------------------------
F--------------------------
    D     C#m    Bm
Then you sleep ...
D         C#m      Bm
Nothing comes from nothing ...

Verse:
A             Bm         A       Bm
When you smoke or poke the poison ...
      A                Bm
your gonna lose the chance Look out ....
   A            Bm         A
the sadness, the pain and the ...
Bm
Or what it has ...
A             Bm      E
When you smoke or poke the ...

Repeat Chorus and repeat Bridge

Anything you wanna say e-mail me at ramaral@net.em.com.br

Find guitar tabs and chords

A B C D E F G H I J K L M N O P Q R S T U V W X Y Z #