Log in

One click and you are in

Login with Facebook Login with Google

Why sign up and log in

Guitar Tabs Explorer
The Mighty Mighty Bosstones bass tabs for Rascal king

Rascal King bass tab by The Mighty Mighty Bosstones

The Mighty Mighty Bosstones bass tabs for Rascal king

Bass tabs

Rascal King
album: Lets face It


verse
-----------------------------------------------------------------------------
--7-7-7-7-----------------------5-5-5-5--------7-7-7-7--------------5-5-5----
-------------7-7-7-7--7-7-7--------------------------------------------------
---5-5-5-------------------------5-5-5---------------------------------------


-----------------------------------------------------------------------------
--7-7-7-7--------------------------------------7-7-7-7--------------5-5-5----
-------------7-7-7-7--------5-5-5-5------------------------------------------
---5-5-5----------3-3-3----------5-5-5---------------------------------------


chorus
-------------------------4-4-------------7-7---------------------------------
4-4-7-7-4-4-----5-5-----5-5-4-4-7-7-----7-7-----5-5-4-4-------------5-5------
-------7-7-----------------------------7-7---------7-7-----------------------
-----------------------------------------------------------------------------

Almost there ...

Sign in to get your own page with links to favourite songs and more. You are just one click away...

Login with Facebook Login with Google