Numbered Days by The Mighty Mighty Bosstones

Numbered Days bass tab by The Mighty Mighty Bosstones

Bass tabs

Song :Numbered Days
Artist:Mighty Mighty Bosstones
Album:Let's Face It
Bass tab

     TAbbed by Rafael Amaral(ramaral@net.em.com.br)

Intro:
  D    -  A  - G
G-------------------------------------
D---4-------------4-------------------
A------5-~-----7--------5-~-----------
E-------------------------------------

This is played after intro:
  D        - A        - Bm
G----------------------------------------------------------
D-----5-5--4-4--2-2------5-5--4-4--2-2-------5-5--4-4--2-2-
A--5-------------------0------------------2----------------
E----------------------------------------------------------
  G
G-------------------
D-----5-5--4-4--2-2-
A-------------------
E--3----------------

Verse:(work on that:listen to the cd)
  D     - A      - G
G--------7---7-----------------------------------------------
D------7---7----------------7---------5---5---------5---5----
A---5-------------------7-----------5---5----5---5----5------
E-----------------5--5-----------3---------------------------

Chorus:
  D        - A        - Bm
G----------------------------------------------------------
D-----5-5--4-4--2-2------5-5--4-4--2-2-------5-5--4-4--2-2-
A--5-------------------0------------------2----------------
E----------------------------------------------------------
  G         - D      -   A      -
G----------------------------------------------------------
D-----5-5--4-4--2-2--------5-5--4-4--2-2-----5-5--4-4--2-2-
A------------------------5-----------------0---------------
E--3-------------------------------------------------------
 G
G------------------------------
D------------------------------
A----------------------5---5---
E--0-0-3-0-0-3-0-0-3-----5-----

Bridge:
(2x)  G     -       A
G--------------------------------------------------------
D--------------------------------------------------------
A------------5-5--4-4--2-2-0------------5-5-4-4--2-2-0-0-
E-3-3-3-3-3-------------------5-5-5-5-5------------------
(1x)G              A
G------------------------------------------------------------------
D--------------5-5--4-4--2-2-0-------------------------------------
A------------------------------------------------------------------
E--3-3-3-3-3--------------------5-5-5-5-5-5----5-5--3-3--2-2--3-3--

Anything you want to tell me e-mail me at ramaral@net.em.com.br

Find guitar tabs and chords

A B C D E F G H I J K L M N O P Q R S T U V W X Y Z #