Log in

One click and you are in

Login with Facebook Login with Google

Why sign up and log in

Guitar Tabs Explorer
The Mighty Mighty Bosstones bass tabs for Dogs and chaplains

Dogs And Chaplains bass tab by The Mighty Mighty Bosstones

The Mighty Mighty Bosstones bass tabs for Dogs and chaplains

Bass tabs

Album: Question the Answers


Intro: 1st part with loud guitar (^=small vibrato, P=pull off)

G|--------------------------|
D|--------------------------|
A|-------------------3-2-0--|
E|-0-2-3-2P0-2^^-0-2--------|
Intro: 2nd part with quiet guitar but lots of Bass (mostly bass and drums)

  pick up
G|---------|-------------------------|
D|---------|----------------------2-@|
A|---------|----------------3-2-0---@|
E|-/11-/12-|0-2-3-2P0-2-0-2----------|


Intro: Mostly horns

G|-----0-------------|
D|-2-------2----0----|
A|-------------------|
E|-------------------|





Verse: begining -Verses are played in the A scale

  E      A
G|---------------------|
D|---------------------|
A|-7-----7-------4-5-6-|
E|---00---0000-5-------|


Verse: near end

  E    A    D    A
G|---------------------------------|
D|---6-9-6-7---------4-7-4-------4-|
A|-7---------7-----5---------4-5---|
E|-------------9-5---------5-------|


Chorus type part: (X = palm mute)

  A     F#G  F G F  (All 5th Chords)
G|------------------------|
D|------------------------|
A|------------------------|
E|-XX55-XX5X5-2-3---1-3-1-|

I love the bassline for this song. If it's wrong, let me know!




By Yoda



Comments

Almost there ...

Sign in to get your own page with links to favourite songs and more. You are just one click away...

Login with Facebook Login with Google