Log in

One click and you are in

Login with Facebook Login with Google

Why sign up and log in

Guitar Tabs Explorer
Midnight Oil tabs for Truganini

Guitar tabs

TRUGANINI
By Midnight Oil


INTRO:
Begin with swelling A chord diagramE MajorE octave note : 0x2xxx
then strum A chord diagramC majorC Chord for 1 1/2 bars (6 Beats)

BASS,DRUMS and HARMONICA solo
e-|--------------------------|--------------------------|
B-|--------------------------|--------------------------|
G-|--------------------------|--------------------------|
D-|--------------------------|--------------------------|
A-|--------------------------|--------------------------|
E-|--0--------5-----7--5--7--|--0--------3-----5--3--5--|
(Bassline written for normal guitar)
VERSE 1: (Starts with A chord diagramE minorEm strum on guitar)
There's a road train going ...


RIFF 1: GUITAR interlude (TWO guitars, play twice)
GUITAR 1
e-|--------------------------------|--------------------------------|
B-|--------------------------------|--------------------------------|
G-|--------------------------------|--------------------------------|
D-|------------4-------2-----------|--------------------------------|
A-|--------2---------------4---0---|--------2---5------54---0-------|
E-|0---4---------------------------|0---3-----------------------2---|
GUITAR 2
e-|--------------------------------|--------------------------------|
B-|--------------------------------|--------------------------------|
G-|--------------------------------|--------------------------------|
D-|--------------------------------|--------------------------------|
A-|----77--------------------------|----55--------------------------|
E-|0--0--------0---5---7---5---7---|0--0--------0---3---5---3---5---|



VERSE 2: (Starts with A chord diagramE minorEm strum on guitar)
The backbone of this ....G     A chord diagramA augmentedA     A chord diagramG+G A chord diagramA augmentedA A chord diagramE minorEm
The land is cracked and ....G     A chord diagramA augmentedA     A chord diagramG+G A chord diagramA augmentedA A chord diagramE minorEm
Farmers are hanging on by ....G     A chord diagramA augmentedA     A chord diagramG+G A chord diagramA augmentedA A chord diagramE minorEm
We cursed and stumbled .....D


CHORUS:
A chord diagramG+G      A chord diagramDmDm
I hear much support ....
A chord diagramG+G          A chord diagramDmDm              A chord diagramFF
I hear the Union ...,
A chord diagramG+G     A chord diagramDmDm
I see Namatjira ...
A chord diagramA minorAm    A chord diagramE minorEm            |A chord diagramC majorC   A chord diagramC majorC   A chord diagramC majorC   A chord diagramC majorC   |A chord diagramC majorC   A chord diagramC majorC   A chord diagramD MajorD   A chord diagramD MajorD|
I see ....

END-CHORUS: (with bassline and Guitar 2 from RIFF 1)
And the world won't ....


VERSE 3: (Starts with A chord diagramE minorEm strum on guitar)
         (Also play RIFF 1, both guitars over top)

Blue collar work it ...G     A chord diagramA augmentedA     A chord diagramG+G A chord diagramA augmentedA A chord diagramE minorEm
You just go round ...G     A chord diagramA augmentedA     A chord diagramG+G A chord diagramA augmentedA A chord diagramE minorEm
Somebody's got you on ....G     A chord diagramA augmentedA     A chord diagramG+G A chord diagramA augmentedA A chord diagramE minorEm
And I hope you're ....D


CHORUS:


INSTRUMENTAL:
e||--------------------------------|--------------------------------|
A chord diagramBB||--------------------------------|--------------------------------|
A chord diagramG+G||------------4-----------5-------|------------4-----------5-------|
A chord diagramD MajorD||5-------------------------------|3-------------------------------|
A chord diagramA augmentedA||--------------------------------|--------------------------------|
A chord diagramE MajorE||--------------------------------|--------------------------------|

   [1.______________________________________________________________
e-|--------------------------------|--------------------------------||
B-|--------------------------------|--------------------------------||
G-|------------4-----------5-------|------------4-----------5------o||
D-|--------------------------------|3------------------------------o||
A-|5-------------------------------|--------------------------------||
E-|--------------------------------|--------------------------------||

   [2.______________________________________________________________
e-|--------------------0-----------|--------------------------------|
B-|----------------1-----------1---|------------------------1-------|
G-|--------0-----------------------|----0---------------0-----------|
D-|3-------------------------------|------------2---3---------------|
A-|--------------------------------|--------------------------------|
E-|--------------------------------|--------------------------------|
    (LET Ring)

e-|--------------------------------|--------------------------------|
B-|--------------------------------|--------------------------------|
G-|------------4-----------5-------|------------4-----------5-------|
D-|5-------------------------------|3-------------------------------|
A-|--------------------------------|--------------------------------|
E-|--------------------------------|--------------------------------|

e-|--------------------------------|--------------------------------|
B-|--------------------------------|--------------------------------|
G-|------------4-----------5-------|------------4-----------5-------|
D-|--------------------------------|3-------------------------------|
A-|5-------------------------------|--------------------------------|
E-|--------------------------------|--------------------------------|


e-|--------------------------------|--------------------------------|
B-|3-----------1-----------0-------|------------------------3-------|
G-|--------------------------------|2-----------0-------------------|
D-|--------------------------------|--------------------------------|
A-|--------------------------------|--------------------------------|
E-|--------------------------------|--------------------------------|

e-|--------------------------------|--------------------------------|
B-|1---------------1---3-------1---|--------------------------------|
G-|--------0-----------------------|----0---------------0-----------|
D-|--------------------------------|------------0---2-------0-------|
A-|--------------------------------|--------------------------------|
E-|--------------------------------|--------------------------------|

FINAL CHORUS:
I hear much support for .....


OUTRO:
(with bass, drums)
And the world ....
(with bass, drums, guitar 2 - riff 1)
And the world ....
(with bass, drums, both guitars - riff 1)
And the world ....

End on A chord diagramE minorEm strum


 /^^^^^\                          o                 o
(  / \  )  Craig Lawton                      o
 \  #  /                            o   ______      o
  |   |    BHP Research               _/  (   \_
  |\_/|                     _       _/  (       \_  O
  \___/        /\/\        | \_   _/  (   (    0  \
    |         / / /\       |== \_/  (   (          |
\___+___/    / / /  \      |=== _ (   (   (        |
    |       / / / /\ \     |==_/ \_ (   (          |
    |       \ \/ / / /     |_/     \_ (   (    \__/
   / \       \  / / /                \_ (      _/
  |   |       \/\/\/                   |  |___/
  |   |                               /__/
  /   \    E-mail : craigl@resmel.bhp.com.au

Almost there ...

Sign in to get your own page with links to favourite songs and more. You are just one click away...

Login with Facebook Login with Google