Log in

One click and you are in

Login with Facebook Login with Google

Why sign up and log in

Guitar Tabs Explorer
Midnight Oil tabs for Short memory

Guitar tabs

Short Memory  by Midnight Oil
from the album "10,9,8,7,6,5,4,3,2,1"

(tune down one fret to match the album)
INTRO / CHORUS:

e-|--------------------------|--------------------------|
B-|-----------------2-3-232--|-----------------2-3-232--|
G-|-----4-----0---2--------2-|-----1-----0---2--------2-|
D-|---4-----0----------------|---2-----0----------------|
A-|-2-----------0------------|-2-----------0------------|
E-|-------3------------------|-------3------------------|


e-|--------------------------|
B-|-----------------2-3-232--|
G-|-----4-----0---2--------2-|
D-|---4-----0----------------|
A-|-2-----------0------------|
E-|-------3------------------|


VERSE:

e-|-----------------------------|
B-|-----------------------------|
G-|-----------------------------|
D-|-----0-----0-----0-----0-----|
A-|---2-----3-----2-----3-------|
E-|-0-----3-----0-----3---------|


BRIDGE:

e-|-2-2--------------2-2-------------|
B-|-2-2--------------2-2-------------|
G-|-3-3--------------3-3-------------|
D-|-4-4-----4--0--0--4-4-----4--0--0-|
A-|-4-4---4---4--4---4-4---4---4--4--|
E-|-2-2-2------------2-2-2-----------|


That's about it.  Obviously, you'll have to listen to
the song to get the timing and the subtleties of this truly brilliant
song.


End.

Jonathan Hart
Oils@total.net

Almost there ...

Sign in to get your own page with links to favourite songs and more. You are just one click away...

Login with Facebook Login with Google