GuitarTabsExplorer icon
GuitarTabsExplorer icon

Log in

Songbook

  • Log in to add and see bookmarks

Last visited songs

  • No songs visited yet...
Blue Sky Mine by Midnight Oil

Blue Sky Mine bass tab by Midnight Oil

Bass tabs

BLUE SKY MINE
Moginie/Hirst/Garrett/Rotsey/Hillman
Album : Blue Sky Mining
Bass : Bones Hillman

INTRO: 4X:
G 1----------------------------------1----------------------------------1
D 1*---------------------------------1---------------------------------*1
A 1*-5-5-5-5-------5-5-5-5-----------1-5-5-5-5-----------------3-3-3-3-*1
E 1----------1-1-1---------3-3-3-3-3-1---------5-5-5-5-1-1-1-1----------1

VERSE:
My gut is wrenched out
G I---------------------------------I-------------~-------------------1
D 1---------------------------------1---------------------------------1
A 1-3---3-3-3-2-2-------------------1-3---3-3-3-2-2-------------------1
E 1---------------5-5-5-5-5-5-3-1-3-1---------------5-5-5-5-5-5-3-1-0-1

Who’ll strike the flint
G 1---------------------------------1---------------------------------1
D 1---------------------------------1---------------------------------1
A 1-----------3-----------2-3-5-5---1-----------------------2---2-2---1
E 1-1---1-0-1-----3---3-3---------3-1-5-5-5-5-5-5-5-5-5-5-5-----------1

If I yell out at night
G 1---------------------------------1---------------------------------1
D 1---------------------------------1---------------------------------1
A 1-3---3-3-3-2-2-------------------1-3---3-3-3-2-2-------------------1
E 1---------------5-5-5-5-5-5-3-1-3-1---------------5-5-5-5-5-5-3-1-0-1

They blew the lights
G 1---------------------------------1---------------------------------1
D 1---------------------------------1---------------------------------1
A 1-----------3-----------2-3-5-5---1-----~---------------------------1
E 1-1---1-0-1-----3---3-3---------3-1-5-5-5-5-5-5-5-5-5-5-5-5-5-5-5-5-1

INTRO x2

VERSE

MIDDLE:
And if the blue sky mlnlng company
G 1---------------------------------1---------------------------------1
D 1---------------------------------1---------------------------------1
A 1-----------------5-5-5-5-5-5-5-5-1---------------------------------1
E 1-0-0-0-0-0-0-0-0-----------------1-3-3-3-3-3-3-3-3-3-3-3-3-3-3-3-3-1

If the sugar refining company
G 1---------------------------------1---------------------------------1
D 1---------------------------------1---------------------------------1
A 1-----------------5-5-5-5-5-5-5-5-1----------~----------------------1
E 1-0-0-0-0-0-0-0-0-----------------1-3-3-3-3-3-3-3-3-3---------------1

OTHER PART:
Who’s gonna save me?
G 1-----------------------------------1---------------------------------1
D 1*---------------------------------*1---------------------------------1
A 1*-3---3-3-3-2-2-------------------*1-3-3-3-3-3-3-3-3-3-3-3-3-3-3-3-3-1
E 1----------------5-5-5-5-5-5-3-1-3--1---------------------------------1

INTRO x4

INTERLUDE:
G 1--------------------------------_1 --- 1
D 1---------------------------------1 - 1
A 1-3---3-3-3-2-2-------------------1-3---3-3-3-2-2-------------------1
E 1---------------5-5-5-5-5-5-3-1-3-1---------------5-5-5-5-3-5-0-3-0-1

G 1---------------------------------1---------------------------------1
D 1---------------------------------1---------------------------------1
A 1-----------3-----------2-3-5-5---1---------------------------------1
E 1-1---1-0-1-----3-3-3-3-----------1-5-5-5-5-5-5-5-5-5-5-5-5-5-5-5-5-1

HARMONICA SOLO

OUTRO:
Who’s gonna save me?
G 1----------------------------------1---------------------------------1
D 1*---------------------------------1---------------------------------1
A 1*-3---3-3-3-2-2-------------------1-3---3-3-3-2-2-------------------1
E 1----------------5-5-5-5-5-5-3-1-3-1---------------5-5-5-5-3-5-0-3-0-1

G 1----------------------------------1...1---1
D 1---------------------------------*1...1---1
A 1-----------3-----------2-3-5-5---*lx3 1-3-1
E 1-1---1-0-1-----3-3-3-3------------1...1---1

[ Privacy | About us ]

Welcome to the guitar community

Why join and log in?
- Get songbook with favourite songs
- Get custom made front page
- Submit chords and tabs
- Submit guitar-cover videos
- Get a lot of thumbs up for your work

Songbook

Last visited songs

Site
Home
Search
Community
Submit chords

Video

No video for this page. Check out how you can submit guitar-cover videos here

Search tabs and chords

Browse by artist

A B C D E F G H I J K L M N O P Q R S T U V W X Y Z #


Menu

Search

Video

Bookmark

Login