Log in

One click and you are in

Login with Facebook Login with Google

Why sign up and log in

Guitar Tabs Explorer
Midnight Oil bass tabs for Bedlam bridge

Bass tabs

BEDLAM BRIDGE
Hirst
Album : Blue Sky Mining
Bass : Bones Hillman

INTRO:
G ~---------------------------------~---------------------------------1
D 1---------------------------------1---------------------------------1
A 1---------------------------------1---------------------------------1
E 1-3~3-3-3-3-3-3-3-3-3-3-3-3-3-3-3-1-5-5-5-5-5-5-5-5-5-5-5-5-5-5-5-5-1
VERSE:
In this city with no footpath
G 1---------------------------------1---------------------------------1
D 1---------------------------------1---------------------------------1
A 1---------------------------------1---------------------------~-----I
E 1-3-3-3-3-3-3-3-3-3-3-3-3-3-3-3-3-1-5-5-5-5-5-5-5-5-5-5-5-5-5-5-5-5-1

There's a street of heat and hawkers
G 1---------------------------------1---------------------------------1
D 1---------------------------------1---------------------------------1
A 1---------------------------------1---------------------------------1
E 1-3-3-3-3-3-3-3-3-3-3-3-3-3-2-0-3-1-5-5-5-5-5-5-5-5-5-5-5-5-5-5-5-5-1


BRIDGE:
There's a place that knows no poverty
G 1---------------------------------1---------------------------------1
D 1---------------------------------1---------------------------------1
A 1-5-5-5-5-5-5-5-5-5-5-5-5-5-5-5-5-1---------------~-----------------1
E 1---------------------------------1-2-2-2-2-2-2-2-2-2-2-2-2-2-2-2-2-1


CHORUS:
Up on bedlam bridge
G 1---------------------------------1---------------------------------1
D 1---------------------------------1---------------------------------1
A 1-2-2-2-2-2-2-----2-2-2-2-2-2-----1-2-2-2-2-2-2-2-2-0-0-0-0-0-0-0-0-1
E 1-------------245-------------245-1---------------------------------1

G 1---------------------------------1---------------------------------1
D 1---------------------------------1---------------------------------1
A 1---------------------------------1---------------------------------1
E 1-0-0-0-0-0-0-0-0-0-0-0-0-0-0-0-0-1-2-2-2-2-2-2-2-2-2-2-2-2-2-2-2-2-1

MIDDLE:
So how stands the city _
G 1---------------------5-----4-----1---------------------------------1
D 1-------4---5---7-5-------------5-1-------4---5---7-------2---3---5-1
A 1-5-------------------------------1-5---------------3---------------1
E 1---------------------------------1---------------------------------1

The snow is falling down
G 1---------------------------------1---------------------------------1
D 1-------7---5---4-----------------1-------3---2---------------------1
A 1-5---------------------4---5---7-1-1-------------5-----------------1
E 1-----------------5---------------1--------------------2////12\\2-1

CHORUS xl


OUTRO:
Up on bedlam bridge
G 1---------------------------------1---------------------------------1
D 1---------------------------------1---------------------------------1
A 1-2-2-2-2-2-2-----2-2-2-2-2-2-----1-2-2-2-2-2-2-2-2-0-0-0-0-0-0-0-0-1
E 1-------------245-------------245-1---------------------------------1

G 1---------------------------------1---------------------------------1
D [---------------------------------1---------------------------------1
A 1-----7-7---7-------7-7-75--5-----1---------------------------------1
E 1-0-0-----0-----0-0-------7-------1-2-2-2-2-2-2-2-2-2-2-2-2-2-2-2-2-1

Drive, drive the engines harder
G 1---------------------------------1---------------------------------1
D 1---------------------------------1---------------------------------1
A 1-2-2-2-2-2-2-2-002-2-2-2-2-2-2-001-2-2-2-2-2-2-2-2-0-0-0-0-0-0-0-0-1
E 1---------------------------------1---------------------------------1

G 1---------------------------------1---------------------------------1
D 1---------------------------------1---------------------------------1
A 1-----7-7-----7-7-3-3-3-3-3-3-3-3-1-5-5-5-5-5-5-5-5-5-5-5-5/171717171
E 1-0-0-----0-0---------------------1---------------------------------1

Up on bedlam bridge
G 1---------------------------------1---------------------------------1
D 1---------------------------------1---------------------------------1
A 1-2-2-2-2-2-2-----2-2-2-2-2-2-----1-2-2-2-2-2-2-2-2-0-0-0-0-0-0-0-0-1
E 1-------------245-------------245-1---------------------------------1

G }---------------------------------I---------------------------------1
D 1---------------------------------1---------------------------------1
A 1---------------------------------1---------------------------------1
E 1-0-0-0-0-0-0-0-0-0-0-0-0-0-0-0-0-1-2-2-2-2-2-2-2-2-2-2-2-2-2-2-2-2-1

Drive, drive, drive, drive the engines harder
G 1---------------------------------1---------------------------------1
D 1---------------------------------1---------------------------------1
A 1-2-2-2-2-2-2-----2-2-2-2-2-2-----1-2-2-2-2-2-2-2-2-0-0-0-0-0-0-0-0-1
E 1-------------245-------------245-1---------------------------------1

G 1---------------------------------1---------------------------------}
D 1---------------------------------1---------------------------------1
A 1----------------/15--------------1-5-5-5-5-5-5-5-5-5-5-5-5-5-5-5-5-1
E 1-0-------------------------------1---------------------------------1


CHORUS repeat to fade

Tablature by Brian C.

Almost there ...

Sign in to get your own page with links to favourite songs and more. You are just one click away...

Login with Facebook Login with Google