Log in

One click and you are in

Login with Facebook Login with Google

Why sign up and log in

Guitar Tabs Explorer
Michael Learns To Rock tabs for Someday

Guitar tabs

MICHAEL LEARNS TO ROCK
 TITLE: "SOMEDAY"
 ALBUM: "PLAYED ON PEPPER"
 AUTHOUR: Jascha Richter

 Distortion Guitar for all parts execpt through the verses and
 bridge

 Key:
	h   Hammer on
	p   Pull off
	/   Slide up
        \   Slide down
       ^( ) Bend to the note in ( )
	X   Muted string(s)
        *   Natural Harmonic
       [ ]  Finger vibrato
	~   Strum (strings indicated)


Intro:
   A chord diagramB minorBm    A chord diagramG+G  A chord diagramD MajorD    A chord diagramA augmentedA  A chord diagramB minorBm      A chord diagramG+G    A chord diagramD MajorD  A chord diagramA augmentedA     A chord diagramB minorBm     A chord diagramG+G  A chord diagramD MajorD   A chord diagramA augmentedA   A chord diagramE minorEm
A chord diagramE MajorE ----------------------------------------------------------7---
A chord diagramBB -------------3-2----------------------------------5-7-5-------
A chord diagramG+G --7-6-------4-------7-6-----------------7-6----4/7------------
A chord diagramD MajorD -----9-----5-----------9--7-5--------------9------------------
A chord diagramA augmentedA /9--------5-------/9-----------5-7/9-7------------------------
A chord diagramE MajorE --------------------------------------------------------------

   G~     A chord diagramA augmentedA
  -3-7\5-[5]---|
  -3-----------|
  -4-----------|
  -5-----------|
  -5-----------|
  -------------|

Verse:

 A chord diagramB minorBm		    A chord diagramD MajorD
 In my search ....
 A chord diagramG+G                 A chord diagramA augmentedA
 And peace ...
 A chord diagramB minorBm		   A chord diagramG+G
 I've left the ...


Riff A chord diagramA augmentedA
  A chord diagramD MajorD       A chord diagramA augmentedA
 -----3---------------------|
 -------3-------------------|
 ---------------------------|
 -----------2---------------|
 ---5-----0-----------------|
 -3-------------------------|

 A chord diagramB minorBm		    A chord diagramG+G
 Wanna start ...
 A chord diagramG+G                  A chord diagramA augmentedA           A chord diagramE minorEm
 But it seems to ...
 A chord diagramG+G
 When I know ...
           A chord diagramA augmentedA
 Is that I always ..


Chorus:

 A chord diagramD5D5      A chord diagramA5A5
 Someday s...
 A chord diagramB5B5       A chord diagramG5G5
 Together ...
 A chord diagramD5D5          A chord diagramB5B5                     A chord diagramA5A5
 I will take and you ...


Chorus Riff:

 --------------------------|
 --------------------------|
 --------------7-----------|
 -----0-2h4p2--7-----------|
 -0h2----------5-----------|
 --------------------------|

 A chord diagramD5D5         A chord diagramA5A5
 We'll wait for ...
 A chord diagramB5B5            A chord diagramG5G5
 Cos' nobody owns ...
 A chord diagramD5D5           A chord diagramA5A5               A chord diagramD5D5
 We can shake we ...


 A chord diagramB minorBm    		  A chord diagramG+G	  A chord diagramD MajorD	 	A chord diagramA augmentedA
 Try to throw the ...
 A chord diagramB minorBm	  	  A chord diagramG+G		  A chord diagramD MajorD   A chord diagramA augmentedA
 Try to leave the ...

 Riff A chord diagramA augmentedA

 A chord diagramB minorBm	       A chord diagramG+G
 Here by ...
 A chord diagramD MajorD 	       A chord diagramA augmentedA	    A chord diagramE minorEm
 Waves carry ...
	A chord diagramG+G
 Do you know ...
      A chord diagramA augmentedA
 I am ...

 Chorus


Bridge:

 A chord diagramC majorC
 The love we ...


Riff A chord diagramBB

 -3-2----------------------|
 -----3--------------------|
 -------4------------------|
 --------------------------|
 --------------------------|
 --------------------------|

 A chord diagramB minorBm 			Riff A chord diagramBB
 Just fades away ...
 A chord diagramBb majorBb
 And now you've got ...


Riff A chord diagramC majorC

 -2------------------------|
 ---3----------------------|
 -----4--------------------|
 -------4------------------|
 --------------------------|
 --------------------------|

     A chord diagramC majorC		      A chord diagramD MajorD
 And I ...
 A chord diagramC majorC				 Riff A chord diagramBB
 But the passion ...
 A chord diagramB minorBm			  Riff A chord diagramBB
 In the middle ...
 A chord diagramBb majorBb			      A chord diagramA augmentedA
 Is a passion that ...


Solo:

A chord diagramE MajorE --------------------------------------------------------------
A chord diagramBB ------------------------12------------------------------------
A chord diagramG+G --------------------7/11--11/7-7-9---7-6-7---X-X--------------
A chord diagramD MajorD ----------------7h9--------------------------X-X-9-7----------
A chord diagramA augmentedA *5--------5h7/9------------------------------X-X-9---9-7\5-5--
A chord diagramE MajorE *5----5h7-----------------------------------------------------


  -------10---12^(14)^12-10-10-10h12-12--10/12-7/9-[5]-------10-
  -10h12--------------------------------------------------------
  -------------------------------------------------------9h11---
  --------------------------------------------------------------
  --------------------------------------------------------------
  --------------------------------------------------------------
              Hold      Release
              Bend      Bend
  ----9--------------10-----------------------------------------
  -----------11^(12)----(12)^11\8-8--------------------7/9\7----
  11p9---11p9------------------------------------------7/9\7----
  ----------------------------------------7-7-7-7/9\7-----------
  --------------------------------------5-7-7-7-7/9\7-----------
  -----------------------------------5h7------------------------

  -14-17-14-19-14-14\12-12h14p12-----|
  ------------------------------15-15|
  -----------------------------------|
  -----------------------------------|
  -----------------------------------|
  -----------------------------------|

 End Of Solo


 Chorus (til' fade)


 Chord Dictionary:

     A chord diagramB minorBm  A chord diagramG+G  A chord diagramA augmentedA  A chord diagramD MajorD  A chord diagramE minorEm  A chord diagramC majorC  A chord diagramBb majorBb  A chord diagramD5D5  A chord diagramA5A5  A chord diagramB5B5  A chord diagramG5G5
A chord diagramE MajorE    2   3  0  2  0   0	 1   X   X   X   X
A chord diagramBB    3   3  2  3  0   1	 3   X   X   X   X
A chord diagramG+G    4   4  2  2  0   0	 3   7   X   4   X
A chord diagramD MajorD    4   5  2  0  2   2	 3   7   7   4   5
A chord diagramA augmentedA    2   5  0  0  2   3	 1   5   7   2   5
A chord diagramE MajorE    2   3  0  X  0   0	 1   X   5   X   3

Other versions of Someday

SomedayChords

Almost there ...

Sign in to get your own page with links to favourite songs and more. You are just one click away...

Login with Facebook Login with Google