Log in

One click and you are in

Login with Facebook Login with Google

Why sign up and log in

Guitar Tabs Explorer
George Michael tabs for You have been loved

Guitar tabs

From joakimk@pihls.vgs.no Sun May  4 09:49:49 1997

George Michael      "You Have Been Loved", from the Older album.
Transcription by Joakim Knudsen (joakimk@pihls.vgs.no)

   If you have any other George Michael tabs, then please let me know where to find them!

Intro

-----0-------------0-----2--------0------------22---32-0-----3-0---3-0---2-----3-0---2-----
---1--31--0-01---1--31--3-------1--31-0-013---4---------303--1-1---1-1---3-3---1-1---3-----
--0-0----2-2--2-0-0----2-------0-0----2------2----2----------2-2---2-2---2-2---2-2---2-----
--------0-------------0---------------0----------------------------------0-0---------0-----
-0---000-------0---000----2-3-0---000-------2---2------------0-0---0-0---------0-0---------
----------------------------------------------------0---0----------------------------------

--0---------------0------------2-------0---------------------------------------------------
-3--1-3--------1---31--0--013--4------0----------------------------------------------------
--------4-5---0-0------2--222--2-----0-----------------------------------------------------
-----------------------0--000--------------------------------------------------------------
------------0-----000----------2-2---------------------------------------------------------
------------------------------------0---0--------------------------------------------------


Verse 1

2x
|| ---0---0----0---0----0---0-----2------0---0----0---0-------2----0--0- ||
|| ---1---1----3---3----1---1----3-------1---1----0---0------44----0--0- ||
|| --0-0-0-0--2-2-2-2--0-0-0-0--2-------0-0-0-0--2-2-2-2----2-2----0--0- ||
|| ----------0---0-------------0---------------------------------------- ||
|| -0---0-------------0---0--------2-3-0---0----2---2------2----2------- ||
|| ----------------------------------------------------------------0--0- ||

---2---2-----2---2-----2---2-----1---1-----2---2-----2---2----0---0---0---0----------------
---3---3-----3---3-----2---2-----2---2-----3---3-----3---3----0---0---0---0----------------
--2-2-2-2---2-2-2-2---2-2-2-2---1-1-1-1---2-2-2-2---2-2-2-2--1-1-1-1-1-1-1-1---------------
-0---0-----1---1-------------------------0---0-----1---1-----------------------------------
-------------------------------------------------------------------------------------------
---------------------2---2-----1---1---1--------------------0---0---1---0------------------

---0----0----2---2----0---0----0----0------------------------------------------------------
---1----1----3---3----0---0----1----1------------------------------------------------------
--2-2--2-2--2-2-2-2--1-1-1-1--2-2--2-2-----------------------------------------------------
-----------0---0---------------------------------------------------------------------------
-0----1----------------------0-------------------------------------------------------------
--------------------0---0------------------------------------------------------------------

Chorus

3x
|| ---1----2----0------- ||
|| ---1----2----1-01---- ||
|| --2----0----2-2--20-- ||
|| --------------------- ||
|| -----------0--------- ||
|| -1--1-3--3----------- ||

---1----2-------0------------------------------------------------------------------
---1----2------1-------------------------------------------------------------------
--2----0------0--------------------------------------------------------------------
-----------------------------------------------------------------------------------
------------3----------------------------------------------------------------------
-1--1-3--3-------------------------------------------------------------------------


Bridge

3-0---3-0---2-----3-0---2-------0----------
1-1---1-1---3-3---1-1---3------3--1-3------
2-2---2-2---2-2---2-2---2-------------4-5--
------------0-0---------0------------------
0-0---0-0---------0-0---------------------0
-------------------------------------------


Verse 2


Chorus
From joakimk@pihls.vgs.no Sun May  4 09:49:55 1997

Almost there ...

Sign in to get your own page with links to favourite songs and more. You are just one click away...

Login with Facebook Login with Google