Log in

One click and you are in

Login with Facebook Login with Google

Why sign up and log in

Guitar Tabs Explorer
Mgmt bass tabs for Metanioa

Bass tabs

Tuning: Standard (E A D G)


1st part:
 A         D    C#m                Cm
G|----------------------------------------------------------6--5---------|
D|7-------------------------------------------------------6--------------|
A|------------------5-----5-4--------------------------------------------|
E|-----------------------------------------------------------------------|

              D#         D
G|------------5-------3--------------------------------------------7-----|
D|------------------------------------------------------------7------7---|
A|--------------------------6---------------6-5------------------------5-|
E|-----------------------------------------------------------------------|

 C#m       D   E   A                 C#m
G|-----------------------------------------------------------------------|
D|------------------------------7----9-----7--------------------12-11----|
A|4----------------5------7-------------7--------------------------------|
E|-----------------------------------------------------------------------|
        Cm              D#            D
G|-13--------------------------------------------------------------------|
D|----14-13-11-10-----------------------12---13-----------------15-13-12-|
A|----------------------------------------------------------13-----------|
E|-----------------------------------------------------------------------|

               C#m    D    E      A
G|-----------------------------------------------------------------------|
D|--------------------------12-11----------------------------------------|
A|------12---------------12--------------------------------------12------|
E|----------10---------------------------10--10--12----------------------|

G|-----------------------------------------------------------------------|
D|--------11------------------11----------------------10-12-13-12-10-----|
A|--12-14-----14-12-11-----------11---------------10-----------------13--|
E|----------------------------------12-9-8-------------------------------|

G|-----------------------------------------------------------------------|
D|------12-------------------------12-13-12-----------11------------11/12|
A|--13--------------------------12-----------------11--------------------|
E|-----------------------------------------------------------------------|

G|---------13--14------------------------11--------------------------------------|
D|-12/14----------14--11--------------12-----11-----14-13-11----11-13--14-13-11--|
A|------------------------14--12-------------------------------------------------|
E|-------------------------------------------------------------------------------|


G|-------------------------12----10----------12-10-----------------------|
D|10----12----10-----------------------13----------13---12-----------12--|
A|-----------------------------------------------------------------------|
E|-----------------------------------------------------------------------|

G|10-12-14-12-10---------------------------------------------------------|
D|---------------12-11-----------------12------14----14------------------|
A|------------------------------------------------14---------------------|
E|-----------------------------------------------------------------------|


Interlude @ 01:32:

G|---------------------------------------------------------------------------|
D|---------------------------------------------------------------------------|
A|121212-11/1212-11/1212-11/1212---12---12---12--13-14-----------14------14--|
E|------------------------------------------------------------14------14-----|

G|---------------------------------------------------------------------------|
D|-----------------------------------------------------------9-11------------|
A|11-11-11-11-11-11-11-11-11-11-11-11-9-9-9-9-9-9-9-9-9-9 11-----------------|
E|---------------------------------------------------------------------------|


2nd part @ 01:48:

G|------------------10------------10-----------------------------------------|
D|(11)--------------11------------------13-----------------------------------|
A|---------11------------------11----11-11-----------------------------------|
E|---------------------------------------------------11----------10-9--------|

G|---------------------------------------------------------------------------|
D|---------------------------------12----12-14-16-------16-------------------|
A|-11--11--11-10-11-13-14-13-14-16----16-------------------------------------|
E|---------------------------------------------------------------------------|

G|-------10------------------------------------------------------------------|
D|-11----11--------------------------------------------------13------13------|
A|-----11----------11-------------------11------------------------------------|
E|---------------------------9------------------11-11-11-11----11-11---11-11-|

G|------------------------------------------------------------6--6--6---6----|
D|---------------------------------------------4--4-6-7-6-7-9----------------|
A|-----------------------------------4-5-4-5-7--8----------------------------|
E|9---9---9---9----4--4--4-3-4-6-7-6-7---------------------------------------|

G|---------------------------------------------------------------------------|
D|---------------------------------------------------------------------------|
A|2----2----2----2----2--------------------------2----2----2----2------------|
E|-------------------------2----2----2-----2-------------------------2----2--|

G|---------------------------------------------------------------------------|
D|--------------------4-----6------------------------------------------------|
A|------------------4-----6-----4---------------4----------------------------|
E|1---1---1---1---2-----4---------------4---------------4--------------------|

G|---------------------------------------------------------------------------|
D|------------13------13-----------------------------------------------------|
A|------------------------------------------------------------------------4-5|
E|11-11-11-11----11-11---11-11----9----9----9----9----4--4--4-3-4-6-7-6-7----|

G|----------------------6----------------------------------------------------|
D|------4---4-6-7-6-7-9-----------(-P-A-U-S-E-)------------------------------|
A|4-5-7---8------------------------------------------------------------------|
E|---------------------------------------------------------------------------|

2nd Interlude @ 03:34 - Bass starts @ 03:47:
G|14-14-14----14-12----------12-----14-14-14----14-12----------12------------|
D|-----------------14--12-14----14-------------------14--12-14---------------|(x6)
A|---------------------------------------------------------------------------|
E|---------------------------------------------------------------------------|

G|---------------------------------------------------------------------------|
D|-777777777777777577777777777777577777777777777577777777777777577777777 fade.out|
A|---------------------------------------------------------------------------|
E|---------------------------------------------------------------------------|


3rd Part - Bass starts @ 05:04:
G|------14------------------------14----------16---------14---------14-------|
D|---14---(let ring as chords)--16----------17---------16----------15--------|(x6)
A|12---------------------------15--------------------------------------------|
E|-----------------------------------------15--------14-----------13-------15|

G|----13---------------------------------------------------------------------|
D|--15-------------------------11--------------------------------------------|
A|---------------------11----------------------------------------------------|
E|13-----------14------------------------------------------------------------|


4th Part - Bass starts @ 06:46:
G|----8--------8-10-8--------------------------------------------------------|
D|----------11--------11-10--------------------------------------------------|
A|--------11----------------11-----------11-10-8---7---9--10--7----------7--9|
E|9--------------------------------------------------------------------------|

G|--------------------------------------------------------------------------------|
D|--------------------------------------------------------------------------------|
A|10-----10----10-----9-------12--11--10--9--9-----9--8-----8-8----9-9----11-11---|
E|----------10------10---------------------------9---9----------8------9--------11|
(x 3)

G|----8-------8-10-8-------------------------------------------------------------|
D|---------11--------11-10-------------------------------------------------------|
A|-------11----------------11------------11-10-8----7----7-7---7---6----66---6---|
E|9-----------------------------------------------------7-----7---7----7----7---7|

G|------------------------------------------------------------------------------|
D|------------------------4-5---5-5---5-5---5-5---5-5---4--7-6-5-4--4--------4--|
A|3---3-3---3-3---3-3-5-7--------------------------5--5--------------------4---4|
E|------------------------------------------------------------------------------|

G|---------------------------8--------8-10-8---------------------------------|
D|3--3---3--44---4-6-6-------------11--------11-10---------------------------|
A|-----3-------4-------6--4-----11-----------------11---------11-10-8--------|
E|---------------------------------------------------------------------------|

G|------------------------------------------------------------------------------|
D|------------------------------------------------------------------------------|
A|7--9-10-7--7--9--10---10----10----9--12--11--10--9--9------8----9-9---11-11---|
E|-------------------------10----10-----------------------------------9-------11|

G|----8--------8-10-8--------------------------------------------------------|
D|----------11--------11-10--------------------------------------------------|
A|--------11----------------11-----------11-10-8---7---9--10--7----------7--9|
E|9--------------------------------------------------------------------------|

G|--------------------------------------------------------------------------------|
D|--------------------------------------------------------------------------------|
A|10-----10----10-----9-------12--11--10--9--9-----9--8-----8-8----9-9----11-11---|
E|----------10------10---------------------------9---9----------8------9--------11|

(x5)
(end of last repetion)
G|----------------------------------------------------------------------------------|
D|----------------------------------------------------------------------------------|
A|10-----10----10-----9-------12--11--10--9--9-----9--8-----8-8----10-10-10-10-10-10|
E|----------10------10---------------------------9---9----------8-------------------|

(5th part @ 9:44)
G|---------------------------------------------------------------------------|
D|---------------------------------------------------------------------------|
A|--8---8---8---8---10---10---10---10---(repeat many times)------------------|
E|8---8---8---8---8----8----8----8-------------------------------------------|

G|---------------------------------------------------------------------------|
D|----------------------------------------------------7-----7-----7----------|
A|--------------10-----10-----10-11---10-8----8-10-11------7-----7-7-10----10|
E|10---10-10---10-----10-----------------------------------------------------|

G|---------------------------------------------------------------------------|
D|---------------------------------------------------------------------------|
A|------8--8-10--------------------------------------------------------------|
E|10-------------8-----------------------------------------------------------|

(6th part @ 11:05) --> last part
G|---------------------------------------------------------------------------|
D|-----------------------------------2-------2-------5-----------(Repeat until the end)
A|3-------3--------4--------5------------------------------4--5--7-----------|
E|---------------------------------------------------------------------------|

************************************

| /  Slide up
| \  Slide down

Almost there ...

Sign in to get your own page with links to favourite songs and more. You are just one click away...

Login with Facebook Login with Google