Log in

One click and you are in

Login with Facebook Login with Google

Why sign up and log in

Guitar Tabs Explorer
Mgmt bass tabs for In the afternoon

Bass tabs

Tuning: Standard (E A D G)


Intro: Bass starts @ 00:17:

G|------------------------------------------------------------------------------------------------------6-6|
D|-------8--8--------6--6--------8--8--------6--6--------8--8---------6--6--------8--8------6-6-8-8-9-9----|
A|------------8-----------6-----------8-----------6-----------8------------6-----------8-------------------|
E|---6----------6-4---------4-6---------6-4---------4-6---------6-4----------4-6---------6-----------------|
B|-6-------------------------------------------------------------------------------------------------------|

Verse 1 @ 00:34:
G|-------------------------------------------------------------------------------6-6|
D|---------8-6--6------------8-6--6-7-8---------8-6---6-6-6---------8-6-6-8-8-9-9---|
A|------8-8-8------6-66-8--88-8--------8-----8-8-8---------6-----8-8-8--------------|
E|6---6---------------------------------6--6----------------6--6--------------------|
B|----------------------------------------------------------------------------------|

@ 00:51
G|-----------------------------------------------------------------------------------------------|
D|---------8-6--6-6--------8-8-8-9---9-9--9-11---11-11---11-6---6-6-6--------8-8----8------8-8---|
A|------8-8-8------6------8-8--------------9-------------------------6------8-----8-----8------8-|
E|-6--6-------------4-6-----------------------------------------------4-6------------------------|
B|-----------------------------------------------------------------------------------------------|


Chorus @ 01:07:
G|-----------------------------------------------------------------------------------------------|
D|-----------------------------8-8-8-6---6-6------------------9-9-11-11--------------------------|
A|------------------------------8---------------------------------------9---9-9------------------|
E|------------7---7-7---6---6-------------------6---6-6---7-----------------------7---7-7--------|
B|7---7-7----------------------------------------------------------------------------------------|

G|-----------------------------------------6-6-|
D|---------8-6--6------------8-6-6-8-8-9-9-----|
A|------8-8-8------6-66-8--88-8----------------|
E|6---6----------------------------------------|
B|---------------------------------------------|

Verse 1 @ 01:32:
G|-----------------------------------------------------------------------------------------------|
D|------8-8---8-6---6-6-6------8-8-8-9---9-9---9-11---11-11-11--11-6---6-6--------------------66-|
A|--------------------------------8------------------------------------------8---8-8--8-668899---|
E|6---6-------------------6---6------------------------------------------------------------------|
B|-----------------------------------------------------------------------------------------------|

G|-----------------------------------------------------------------------------------------------|
D|8------8--6---6-------------8--9---9-9---9-11---11-11---11---------------8---8-8-----8----8866-|
A|----8-8-8-------6-6--6-8--88-8----------------------------11---11-11---11-----------8----8-----|
E|---6-------------------------------------------------------------------------------------------|
B|-----------------------------------------------------------------------------------------------|


Chorus @ 02:06:

G|------------------------------------------------------------------------------------------------|
D|----------------------------8-8-8-6---6-6-----------------9-9-11-11-----------------------------|
A|-----------------------------8-----------------------------------------11-11-9---------9-9-11-11|
E|-----------7---7-7---6---6------------------6---6-6---7-------------------------7---7-----------|
B|7---7-7--------------------------------------------------------------7--------------------------|

G|-----------------------------------------------------------------------------------------------|
D|-------------------------------------------------------------------------------6-6-8-8-9-9-----|
A|---11-11-9-------9-9-11-11-------11-11-9----------9-9-11-11------11-11-9---9-9-----------------|
E|----------------7----------------------------7--7----------------------------------------------|
B|7------------------------------7------------------------------7--------------------------------|


Instrumental @ 02:35:

G|-----------------------------------------------------------------------------------------------|
D|-----------------------------------8-6---6--6-------------8--6---6-6---6-8---8-8---8-6---6-6---|
A|8---8-8---8-6---6-6-6-8-9-8---8-8-8-8---------6--8---8-8-8-8-----------------------------------|
E|-----------------------------------------------------------------------------------------------|
B|-----------------------------------------------------------------------------------------------|


Chorus @ 02:52:
G|------------------------------------------------------------------------------------------------|
D|----------------------------8-8-8-6---6-6-----------------9-9-11-11-----------------------------|
A|-----------------------------8-----------------------------------------11-11-9---------9-9-11-11|
E|-----------7---7-7---6---6------------------6---6-6---7-------------------------7---7-----------|
B|7---7-7--------------------------------------------------------------7--------------------------|

G|-----------------------------------------------------------------------------------------------|
D|-----------------------------------------------------------------------------------------------| Repeat
A|---11-11-9-------9-9-11-11-------11-11-9----------9-9-11-11------11-11-9--------9-9--11-11-----| until
E|----------------7----------------------------7--7-------------------------7---7----------------| End
B|7------------------------------7------------------------------7--------------------------------|

G|---------------------------------------------------------------------------|
D|---------------------------------------------------------------------------|
A|---------------------------------------------------------------------------|
E|6--------------------------------------------------------------------------|
B|---------------------------------------------------------------------------|

Almost there ...

Sign in to get your own page with links to favourite songs and more. You are just one click away...

Login with Facebook Login with Google