Log in

One click and you are in

Login with Facebook Login with Google

Why sign up and log in

Guitar Tabs Explorer
Mgmt bass tabs for Flash delirium

Bass tabs

Tuning: Standard (E A D G)


Intro:
G|--------|--------|---------------------------------|---------------------------------|
D|--------|--------|---------------------------------|---------------------------------|
A|--------|--------|-8---8---8---8---8---8---8---8---|-8---8---8---8---8---8---8---8---|
E|--------|--------|---------------------------------|---------------------------------|
G|---------------------------------|---------------------------------|---------------------------------|
D|---------------------------------|---------------------------------|---------------------------------|
A|-5---5---5---5---5---5---5---5---|-7---7---7---7---7---7---7---7---|-7---7---7---7---7---7---7---7---|
E|---------------------------------|---------------------------------|---------------------------------|


G|---------------------------------|---------------------------------|---------------------------------|
D|---------------------------------|---------------------------------|---------------------------------|
A|-8---8---8---8---8---8---8---8---|-8---8---8---8---8---8---8---8---|-5---5---5---5---5---5---5---5---|
E|---------------------------------|---------------------------------|---------------------------------|


Verse:
G|---------------------|------------------------|------------------------|---------------------------|
D|-7----7----7----7----|-7----7----7----7---8---|-9----9---9----9---9----|---------------------------|
A|---------------------|------------------------|------------------------|-7----7---7----7---7---7---|
E|---------------------|------------------------|------------------------|---------------------------|


G|------------------------|---------------------------------|---------------------|
D|------------------------|---------------------------------|---------------------|
A|-0----0---0----0---0----|-0---0---0---0---0---0---0---0---|-8----8-----8----8---|
E|------------------------|---------------------------------|---------------------|


G|---------------------------|------------------------|---------------------|------------------------|
D|---------------------------|------------------------|------7---------7----|-7----7---------7-------|
A|-8----8----8---7---8---7---|-5----5-----5---5---5---|-0----------0--------|------------0-------0---|
E|---------------------------|------------------------|---------------------|------------------------|

G|---------------------|---------------------------|------------------|---------------------|
D|---------------------|---------------------------|------------------|------7---------7----|
A|-8----8-----8----8---|-8----8----8---7---8---7---|-5----5-----5-----|-0----------0--------|
E|---------------------|---------------------------|------------------|---------------------|


Chorus:
G|---------------------------|------------------------|------------------------|---------------------|
D|-7-------7-----7---7---8---|------------------------|------------------------|---------------------|
A|-----0---------------------|------------------------|-7--------7---7----7----|-0----0----0----0----|
E|---------------------------|-7--------7---7---------|------------------------|---------------------|


G|---------------------|---------------------|---------------------|---------------------|
D|---------------------|---------------------|---------------------|-9----9----9----9----|
A|-0----0----0----0----|-5----5----5----5----|-5----5----5----5----|---------------------|
E|---------------------|---------------------|---------------------|---------------------|


Verse:
G|---------------------|---------------------|---------------------------------------------------------------|
D|-9----9----9----9----|---------------------|---------------------------------------------------------------|
A|---------------------|-7----7----7----7----|-7---7---7---7---7---7---7---7----8---8---8---8---8---8---8---8|
E|---------------------|---------------------|---------------------------------------------------------------|


G|---------------------------------|---------------------------------|---------------------------------|
D|---------------------------------|---------------------------------|---------------------------------|
A|-8---8---8---8---8---8---8---8---|-3---3---3---3---3---3---3---3---|-0---0---0---0---0---0---0---0---|
E|---------------------------------|---------------------------------|---------------------------------|


G|---------------------------------|---------------------------------|---------------------------------|
D|---------------------------------|---------------------------------|---------------------------------|
A|-8---8---8---8---8---8---8---8---|-8---8---8---8---8---8---8---8---|-5---5---7---5---8---7---5---7---|
E|---------------------------------|---------------------------------|---------------------------------|


G|---------------------------------|---------------------------------|---------------------------------|
D|---------7---7---7-------7---5---|---------------------------------|-5---5---5---5---5---5---5---5---|
A|-0---0---------------0-----------|-8---8---8---8---8---8---8---8---|---------------------------------|
E|---------------------------------|---------------------------------|---------------------------------|


G|-5---5---5---5---5---5---5---5---|---------------------------------|---------------------------------|
D|---------------------------------|-7---7---7---7---7---7---7---7---|---------------------------------|
A|---------------------------------|---------------------------------|-8---8---8---8---8---8---8---8---|
E|---------------------------------|---------------------------------|---------------------------------|


G|---------------------------------|---------------------|--------------------------------------10-----------|
D|---------------------------------|---------------------|---------------------------------------------------|
A|-5---5---5---5---5---5---5---5---|-0----0----0----0----|-0----0----0----0-----8---8-------8-------8---7---8|
E|---------------------------------|---------------------|---------------------------------------------------|


G|-----------------10--------------|---------------------7-----------|---------------------------|
D|---------------------------------|---------------------------------|------7---7--------7---7---|
A|-8---8-------8-------8---7---8---|-5---5---7---7---8-------7---8---|-0-------------0-----------|
E|---------------------------------|---------------------------------|---------------------------|


Bridge:
G|------------------------------|------------------------------|------------------------------|
D|------------------------------|------------------------------|------------------------------|
A|-8----8---8---8---8-------8---|--------------8---8-----------|-5----5---5---5---5---0---5---|
E|------------------------------|-8---8---8------------8---6---|------------------------------|


G|------------------------|------------------------------|--------------------------|
D|---------7---------7----|-7-------7----7---7---7---8---|-9----9----9----9--7------|
A|-6---7---------0--------|-----0------------------------|----------------------9---|
E|------------------------|------------------------------|--------------------------|


G|---------------------------|------------------------|------------------------------|
D|---------------------------|-7----7----7---7----7---|-7----7---7---7---7---7-------|
A|-7----7----7---7-------7---|------------------------|--------------------------5---|
E|---------------------------|------------------------|------------------------------|


G|--------|--------|--------|----------------|--------|--------|--------|--------|
D|--------|-6------|-5------|-7------7-------|--------|--------|--------|--------|
A|-8------|--------|--------|------------10--|-9------|-9------|-7------|-7------|
E|--------|--------|--------|----------------|--------|--------|--------|--------|


Chorus:
G|--------|--------|--------|--------|---------------------|---------------------------------|
D|--------|-6------|-5------|-7------|-9----9----9----9----|---------------------------------|
A|-8------|--------|--------|--------|---------------------|-7---7---7---7---7---7---7---7---|
E|--------|--------|--------|--------|---------------------|---------------------------------|


G|---------------------|---------------------------|------------------------|---------------------------|
D|---------------------|---------------------------|------------------------|---------------------------|
A|-0----0----0----0----|-0---0----0----0---0---0---|-5---5---5----5----5----|-5---5----5----5---5---5---|
E|---------------------|---------------------------|------------------------|---------------------------|


G|---------------------|---------------------------|---------------------|---------------------------------|
D|---------------------|---------------------------|-2----2----2----2----|-2---2---2---2---2---2---2---2---|
A|-2----2----2----2----|-2---2----2----2---2---2---|---------------------|---------------------------------|
E|---------------------|---------------------------|---------------------|---------------------------------|


Outro:
G|--------|-------------|-5---5---5---5---5---5---5---5---|---------------------------------|
D|-3------|-3-----------|---------------------------------|-7---7---7---7---7---7---7---7---|
A|--------|-------------|---------------------------------|---------------------------------|
E|--------|-------------|---------------------------------|---------------------------------|


G|---------------------------------|---------------------------------|---------------------------------|
D|---------------------------------|---------------------------------|---------------------------------|
A|-8---8---8---8---8---8---8---8---|-8---8---8---8---8---8---8---8---|-5---5---7---5---8---7---5---7---|
E|---------------------------------|---------------------------------|---------------------------------|


G|---------------------------------|---------------------------------|---------------------------------|
D|---------7---7---7---7---7---7---|---------------------------------|-5---5---5---5---5---5---5---5---|
A|-0---0---------------------------|-8---8---8---8---8---8---8---8---|---------------------------------|
E|---------------------------------|---------------------------------|---------------------------------|


G|-5---5---5---5---4---4---4---4---|---------------------------------|---------------------------------|
D|---------------------------------|-7---7---7---7---5---5---5---5---|---------------------------------|
A|---------------------------------|---------------------------------|-8---8---8---8---8---8---8---8---|
E|---------------------------------|---------------------------------|---------------------------------|


G|---------------------------------|---------------------------------|---------------------------------|
D|---------------------------------|-5---5---5---5---5---5---5---5---|-7---7---7---7---7---7---7---7---|
A|-8---8---8---8---8---8---8---8---|---------------------------------|---------------------------------|
E|---------------------------------|---------------------------------|---------------------------------|


G|---------------------------------|---------------------------------|---------------------------------|
D|---------------------------------|---------------------------------|---------------------------------|
A|-8---8---8---8---8---8---8---8---|-8---8---8---8---8---8---8---8---|-5---5---5---5---5---5---5---5---|
E|---------------------------------|---------------------------------|---------------------------------|


G|------------------------------|---------------------------------|---------------------------------|
D|------------------------------|---------------------------------|-5---5---5---5---5---5---5---5---|
A|-0----0---0---0---0---0---0---|-8---8---8---8---8---8---8---8---|---------------------------------|
E|------------------------------|---------------------------------|---------------------------------|


G|-5---5---5---5---5---5---5---5---|---------------------------------|---------------------|
D|---------------------------------|-7---7---7---7---7---7---7---7---|-9----9----9----9----|
A|---------------------------------|---------------------------------|---------------------|
E|---------------------------------|---------------------------------|---------------------|


G|---------------------|---------------------|---------------------------------|---------------------|
D|-9----9----9----9----|---------------------|---------------------------------|---------------------|
A|---------------------|-7----7----7----7----|-7---7---7---7---7---7---7---7---|-8----8----8----8----|
E|---------------------|---------------------|---------------------------------|---------------------|


G|---------------------|---------------------|---------------------|---------------------|
D|-6----6----6----6----|-5----5----5----5----|-7----7----7----7----|---------------------|
A|---------------------|---------------------|---------------------|-9----9----9----9----|
E|---------------------|---------------------|---------------------|---------------------|


Ending:
G|---------------------|---------------------|---------------------------------------------------------------|
D|---------------------|---------------------|---------------------------------------------------------------|
A|-9----9----9----9----|-7----7----7----7----|-7---7---7---7---7---7---7---7----8---8---8---8---8---8---8---8|
E|---------------------|---------------------|---------------------------------------------------------------|


G|---------------------------------|---------------------------------|---------------------------------|
D|-6---6---6---6---6---6---6---6---|-5---5---5---5---5---5---5---5---|-7---7---7---7---7---7---7---7---|
A|---------------------------------|---------------------------------|---------------------------------|
E|---------------------------------|---------------------------------|---------------------------------|


G|---------------------------------|---------------------------------|----------------|
D|---------------------------------|---------------------------------|----------------|
A|-9---9---9---9---9---9---9---9---|-7---7---7---7---7---7---7---7---|-0--------------|
E|---------------------------------|---------------------------------|----------------|

Almost there ...

Sign in to get your own page with links to favourite songs and more. You are just one click away...

Login with Facebook Login with Google