Log in

One click and you are in

Login with Facebook Login with Google

Why sign up and log in

Guitar Tabs Explorer
Mf Doom bass tabs for Rapp snitch knishes

Bass tabs

Tuning: Standard (E A D G)


Intro:
G|--------0-----|
D|----0-0-------|
A|--------------|
E|-3-3----------|


Verse 1:

G|--------0-----|--------------------|-----4----|------------|---------| x17
D|----0-0-------|-4-4----------------|---4------|-0-0-----0--|-0-2-3---|
A|--------------|-----4-4--------0-1-|-2--------|-----2-0----|---------|
E|-3-3----------|---------2----2-----|----------|------------|---------|

There's a little riff in the first bar that MIGHT be the notes quickly played in reverse, but I can't tell.
Sounds maybe like:

G|--------0---0--|--------------------|-----4----|------------|---------| x17
D|----0-0------0-|-4-4----------------|---4------|-0-0-----0--|-0-2-3---|
A|---------------|-----4-4--------0-1-|-2--------|-----2-0----|---------|
E|-3-3----------3|---------2----2-----|----------|------------|---------|

Either way, feel free to add, but mostly, enjoy jamming along.

Almost there ...

Sign in to get your own page with links to favourite songs and more. You are just one click away...

Login with Facebook Login with Google