Search tabs and chords

Search for song, artist or band

Log in

One click and you are in

Login with Facebook Login with Google

Why sign up and log in

Guitar Tabs Explorer
Mezzano guitar tabs for Bryn mawr

Guitar tabs

SONG: BRYN MAWR
ARTIST: MEZZANO
MUSIC BY: MARK D chord diagramDD’AGOSTINO
AUTHOR OF TAB: EDWARD NAREA

THIS SONG IS PRETTY SIMPLE, BUT IT SURE IS GREAT!

h = hammer

 RIFF #1          	       RIFF #2
e|-------------------------|-------------------------|
B|-------------------------|-------------------------|
G|-------------------------|-------1-1-1-------3-4h5-|
D|-------1-1-1-------3-4h5-|-3-3-3-------1-1-1-------|
A|-3-3-3-------1-1-1-------|-------------------------|
E|-------------------------|-------------------------|

 RIFF #3
e|-------------------------|
B|-------------------------|
G|-------3-3-3-------5-6h7-|
D|-5-5-5-------3-3-3-------|
A|-------------------------|
E|-------------------------|


VERSES:   RIFF #1		BRIDGE CHORDS: C chord diagramCC MAJ
		RIFF #1					C7 chord diagramC7C7
		RIFF #2					F chord diagramFF MAJ
		RIFF #2					F chord diagramFF min
		RIFF #1
		RIFF #1		CHORUS CHORDS: NONE
		RIFF #3					TURN OFF THE AMP
		RIFF #2					GUITAR DOESN’T PLAY
		RIFF #1					LEARN THE KEYBOARD
		RIFF #1					IT’S THE COOL PART!

Almost there ...

Sign in to get your own page with links to favourite songs and more. You are just one click away...

Login with Facebook Login with Google