Log in

One click and you are in

Login with Facebook Login with Google

Why sign up and log in

Guitar Tabs Explorer
Metronomy bass tabs for The light

Bass tabs

Tuning: Standard (E A D G)


Intro:

G|------------------------------------|--------------------------------------|
D|--------9--7------------------------|--------------------------------------|
A|-----7--------10--7--5--3-----------|--------------------------------------|
E|--5-----------------------1-(hold)--|--------------------------------------|

G|------------------------------------|--------------------------------------|
D|------------------------------------|-----------14--12--10-----------------|
A|------------------------------------|-------12--------------12--11---------|
E|-/10-10---x--10-----10--------------|-10-10--------------------------------|

G|------------------------------------|--------------------------------------|
D|--------9--7------------------------|--------------------------------------|
A|-----7--------10--7--5--3-----------|--------------------------------------|
E|--5-----------------------1-(hold)--|--------------------------------------|

G|------------------------------------|--------------------------------------|
D|-----------14--12--10-----12--------|-----------14--12--10-----------------|
A|-------12--------------12-----------|-------12--------------12--11---------|
E|-10-10------------------------------|-10-10--------------------------------|


Verse 1:

G|--|------------------------------------|--------------------------------------|
D|--|------------------------------------|--------------------------------------|
A|--|------------------------------------|--------------------------------------|
E|5-|-5--------------------------------1-|-1------------------------------------|

G|-------------------------------------|-------------------------------------|
D|-------------------------------------|-------------------------------------| x2
A|-------------------------------------|-------------------------------------|
E|-/10-10---x--10-----10------(\0)-----|-/10-10---x--10-----12------12-------|



Chorus:

G|--|------------------------------------|--------------------------------------|
D|--|------------------------------------|--------------------------------------|
A|--|------------------------------------|--------------------------------------|
E|5-|-5--------------------------------1-|-1---------------------------------10-|

G|-------------------------------------|-------------------------------------|
D|-------------------------------------|-------------------------------------| x2
A|-------------------------------------|-------------------------------------|
E|-10------------------------------10--|-10-----------------12------12-------|


Post-Chorus: (intro)

G|------------------------------------|--------------------------------------|
D|--------9--7------------------------|--------------------------------------|
A|-----7--------10--7--5--3-----------|--------------------------------------|
E|--5-----------------------1-(hold)--|--------------------------------------|

G|------------------------------------|--------------------------------------|
D|------------------------------------|--------------------------------------|
A|-(rest)-----------------------------|--------------------------------------|
E|------------------------------------|--------------------------------------|

G|------------------------------------|--------------------------------------|
D|--------9--7------------------------|--------------------------------------|
A|-----7--------10--7--5--3-----------|--------------------------------------|
E|--5-----------------------1-(hold)--|--------------------------------------|

G|------------------------------------|--------------------------------------|
D|-----------14--12--10-----12--------|-----------14--12--10-----------------|
A|-------12--------------12-----------|-------12--------------12--11---------|
E|-10-10------------------------------|-10-10--------------------------------|


Verse 2:

G|--|------------------------------------|--------------------------------------|
D|--|------------------------------------|--------------------------------------|
A|--|------------------------------------|--------------------------------------|
E|5-|-5--------------------------------1-|-1------------------------------------|

G|-------------------------------------|-------------------------------------|
D|-------------------------------------|-------------------------------------|  x2
A|-------------------------------------|-------------------------------------|
E|-/10-10---x--10-----10------(\0)-----|-/10-10---x--10-----12------12-------|


Chorus:

G|--|------------------------------------|--------------------------------------|
D|--|------------------------------------|--------------------------------------|
A|--|------------------------------------|--------------------------------------|
E|5-|-5--------------------------------1-|-1---------------------------------10-|

G|-------------------------------------|-------------------------------------|
D|-------------------------------------|-------------------------------------|  x4
A|-------------------------------------|-------------------------------------|
E|-10------------------------------10--|-10-----------------12------12-------|


Post-Chorus:

G|---------------------------------------------------------------------------|
D|---------------------------------------------------------------------------|
A|-----(rest)----------------------------------------------------------------|
E|---------------------------------------------------------------------------|


Outro:

G|--|------------------------------------|--------------------------------------|
D|--|------------------------------------|--------------------------------------|
A|--|------------------------------------|--------------------------------------|
E|5-|-5--------5--------5---------5----1-|-1-------1--------1---------1------10-|

G|-------------------------------------|-------------------------------------|
D|-------------------------------------|-------------------------------------|  x4
A|-------------------------------------|-------------------------------------|
E|-10------10-------10-------10----10--|-10------10----10------12------12----|


************************************

| x  Dead note
| /  Slide up
| \  Slide down

************************************

Almost there ...

Sign in to get your own page with links to favourite songs and more. You are just one click away...

Login with Facebook Login with Google