Log in

One click and you are in

Login with Facebook Login with Google

Why sign up and log in

Guitar Tabs Explorer
Metronomy bass tabs for She wants

Bass tabs

She Wants - Metronomy
-------------------------------------------------------------------------------

Tabbed By : Jake b
e-mail: jakeguitarhero@hotmail.com
Tuning: Standard
Lots of Chorus & Reverb
You can workout the timings


Intro/Verse 1 (Slap if u want) x3

G|-----7p5--------10p7--------7p5--------------7p5-------10p7--------7p5----------5h7--|
D|--------7-----------10\--------7----------------7----------10\--------7--------------|
A|-5~-x------5-7-8--------5~-x-----5-7-8----5~-x----5-7-8--------5~-x-----5-7-8--------|
E|---------------------------------------8~-------------------------------------8------|


Bridge x1

G|-------------------5h7---------------------------------------------------------------|
D|-------------------------------------------------------------------------------------|
A|-5----5----5----5--------------------------------------------------------------------|
E|-------------------------------------------------------------------------------------|


Chorus (defo slap) x4

G|--------------7p5--------------------------------------------------------------------|
D|---8--------------5\---3------5-5/7--------------------------------------------------|
A|-------------------------------------------------------------------------------------|
E|-6---10p8h10---------1---1/3---------------------------------------------------------|

Pause then Verse 2 x2


Bridge 2 x1

G|-------------------------------5h7---------------------------------------------------|
D|-------------------------------------------------------------------------------------|
A|-5-5-5-5-5-5-5-5-5-5-5-5-5-5-5-------------------------------------------------------|
E|-------------------------------------------------------------------------------------|


Chorus x15

Hope it works for you, this is my first ever tab. Cheers


| / slide up
| \ slide down
| h hammer-on
| p pull-off
| ~ vibrato
| + harmonic
| x Mute note

Almost there ...

Sign in to get your own page with links to favourite songs and more. You are just one click away...

Login with Facebook Login with Google