Log in

One click and you are in

Login with Facebook Login with Google

Why sign up and log in

Guitar Tabs Explorer
Metheny Pat chords for Last train home

Guitar chords

This is tab for Pat Matheny's song Last Train Home. Pat play this song on
sitar but it's easy to play it on guitar and sound's just great.
If you have a wah us it.

Title: Last Train Home
Album: Still Life (Talking)
e-|----------------------------------------------------------------------------
B-|----------------------------------------------------------------------------
G-|----3----5s7------6s7-------5------3------5-------3-------0-----------------
D-|-----------------------------------------------------------------3----------
A-|----------------------------------------------------------------------------
E-|----------------------------------------------------------------------------


e-|----------------------------------------------------------------------------
B-|----------------------------------------------------------------------------
G-|----5----7s9------8s9-------7------5------7------5--------------------------
D-|---------------------------------------------------------6s4----------------
A-|----------------------------------------------------------------------------
E-|----------------------------------------------------------------------------


e-|---------------------------------------------------------------------------
B-|---------------------------------------------------------------------------
G-|------------------------------7*s5-----------------------------------------
D-|----------------5------7---------------------------------------------------
A-|----5-----7----------------------------------------------------------------
E-|---------------------------------------------------------------------------


e-|-------------------------------------------------------------3-------------
B-|----5-----10-----10-----5---------------8-----5--------------3-------------
G-|-------------------------------6s4--------------------6------3-------------
D-|---------------------------------------------------------------------------
A-|---------------------------------------------------------------------------
E-|---------------------------------------------------------------------------


e-|---------------------------------------------------------------------------
B-|-----------6------6--------------------6---------------------6-------------
G-|----4--------------------4------6-------------4------4---------------------
D-|---------------------------------------------------------------------------
A-|---------------------------------------------------------------------------
E-|---------------------------------------------------------------------------


Well, if you have any comments or corrections, please let me know.

-Hrvoje Miocevic (hrvoje@supernews.com)

Almost there ...

Sign in to get your own page with links to favourite songs and more. You are just one click away...

Login with Facebook Login with Google