Log in

One click and you are in

Login with Facebook Login with Google

Why sign up and log in

Guitar Tabs Explorer
Metheny Pat tabs for James

Guitar tabs with lyrics

James

Pat Metheny
A chord diagramG/DG/D              A chord diagramA/C#A/C# A chord diagramA/C#A/C#
     Q    A chord diagramE MajorE  A chord diagramE MajorE  A chord diagramE MajorE  Q    A chord diagramE MajorE      A chord diagramE MajorE  Q.     Q    Q       Q    A chord diagramE MajorE  A chord diagramE MajorE  A chord diagramE MajorE  Q    A chord diagramE MajorE
A chord diagramE MajorE||--8----7--7--L--5----5---|--L--3------7----5----|--5----3--3--L--2----5--|
A chord diagramBB||--8-------7--L-------3---|--L---------5----5----|--5-------4--L--4----3--|
A chord diagramG+G||--8-------8--L-------4---|--L---------6----6----|--5-------5--L--5----4--|
A chord diagramD MajorD||---------------------0---|--L-------------------|------------------------|
A chord diagramA augmentedA||-------------------------|------------4----4----|--3------------------2--|
A chord diagramE MajorE||-------------------------|----------------------|------------------------|

A chord diagramG/BG/B    Gm/Bb         A chord diagramD/AD/A
  A chord diagramE MajorE  Q.     Q     Q       Q    A chord diagramE MajorE  A chord diagramE MajorE  A chord diagramE MajorE  Q    A chord diagramE MajorE     A chord diagramE MajorE  Q    A chord diagramE MajorE  A chord diagramE MajorE  Q    A chord diagramE MajorE
--L--3------3-----2----|--2----0--0--L-------0--|--L--1----0--L-------0--|
--L--3------3----------|--3-------3--L--3----1--|--L-------1--L--3----3--|
--L--4------3----------|--2-------2--L-------2--|--L-------2--L-------2--|
-----------------------|------------------------|------------------------|
--L--2------1----------|--0-------0--L-------0--|--L-------0--L-------0--|
-----------------------|------------------------|------------------------|

B/G
  A chord diagramE MajorE  Q    A chord diagramE MajorE  A chord diagramE MajorE  Q    A chord diagramE MajorE     A chord diagramE MajorE  A chord diagramE MajorE  Q    A chord diagramE MajorE  Q    A chord diagramE MajorE     A chord diagramE MajorE  A chord diagramE MajorE  A chord diagramE MajorE  A chord diagramE MajorE   A chord diagramE MajorE  Q    A chord diagramE MajorE
--L--2----0--L----------|----------------0-------|--------5--7---L----------|
--L-------3--L--3----0--|--L--0--3------------3--|-----7-----7---L--7----5--|
--L-------2--L-------2--|--L----------2--2-------|-----------------------6--|
---------------------0--|--L-------------0-------|-----7-----5---L-------5--|
--L-------0--L----------|----------------0-------|-----5--------------------|
---------------------3--|--L-----3---------------|-----------------------6--|

D/B             B/G       A chord diagramEsus2Esus2
  A chord diagramE MajorE  Q    A chord diagramE MajorE   H           A chord diagramE MajorE   A chord diagramE MajorE  A chord diagramE MajorE  Q     Q    A chord diagramE MajorE     A chord diagramE MajorE  Q    Q    Q.
-----5-----------------|--------------------------|----------------------|
--L-------7---L--------|--------------------------|----------------------|
--L-------7---L--------|--4---4--4--4-----2----4--|--L--4----4----2------|
--L-------7---L--------|--4---4--4--2-----2----4--|--L--4----2----2------|
-----------------------|--------------------------|----------------------|
--L-------7---L--------|--3---------2-----2----3--|--L-------2----2------|

A chord diagramD MajorD     B/G                            D/B
  A chord diagramE MajorE  A chord diagramE MajorE  A chord diagramE MajorE  A chord diagramE MajorE   A chord diagramE MajorE   Q     A chord diagramE MajorE      A chord diagramE MajorE   Q     Q     S  S  A chord diagramE MajorE   A chord diagramE MajorE
--------5--7---L--10----12--|---L--12----10----------10------|
-----7-----7---L--------12--|---L--12----10----10-12-----12--|
----------------------------|----------------------------11--|
-----7-----5---L--------11--|---L---------9------------------|
-----5----------------------|----------------------------10--|
----------------------------|--------------------------------|

A chord diagramE MajorE  S S A chord diagramE MajorE  Q    S S A chord diagramE MajorE  A chord diagramE MajorE     A chord diagramE MajorE  S S A chord diagramE MajorE  Q     S  S  A chord diagramE MajorE   A chord diagramE MajorE
---------5-----------------|-----------------------10------|
-----5-7----7--------3-----|-----------------10-12-----12--|
------------6----2-4----4--|---------2-----------------11--|
------------------------4--|-----2-4----4------------------|
------------5--------------|------------2--------------10--|
------------------------3--|------------2------------------|

B/G
  A chord diagramE MajorE  S S A chord diagramE MajorE  A chord diagramE MajorE  A chord diagramE MajorE  A chord diagramE MajorE  A chord diagramE MajorE  A chord diagramE MajorE     A chord diagramE MajorE  Q.     H           A chord diagramE MajorE  A chord diagramE MajorE  A chord diagramE MajorE  A chord diagramE MajorE   A chord diagramE MajorE  Q    A chord diagramE MajorE
---------5-----------------|---------------------|--------5--7---L----------|
-----5-7----7--------------|---------------------|-----7-----7---L--7----5--|
------------6--------------|-----7------L--------|-----------------------6--|
------------------9--7--9--|-----7------L--------|-----7-----5---L-------5--|
------------5--------------|---------------------|-----5--------------------|
---------------------------|---------------------|-----------------------6--|

D/B             B/G       A chord diagramEsus2Esus2
  A chord diagramE MajorE  Q    A chord diagramE MajorE   H           A chord diagramE MajorE   A chord diagramE MajorE  A chord diagramE MajorE  Q     Q    A chord diagramE MajorE     A chord diagramE MajorE  Q    Q    A chord diagramE MajorE  Q
-----5-----------------|--------------------------|------------------0----|
--L-------7---L--------|--------------------------|---------------3--2----|
--L-------7---L--------|--4---4--4--4-----2----4--|--L--4----4----4--0----|
--L-------7---L--------|--4---4--4--2-----2----4--|--L--4----2------------|
-----------------------|--------------------------|------------------0----|
--L-------7---L--------|--3---------2-----2----3--|--L-------2----3-------|

A chord diagramD MajorD     B/G                            D/B
  A chord diagramE MajorE  A chord diagramE MajorE  A chord diagramE MajorE  A chord diagramE MajorE   A chord diagramE MajorE   Q     A chord diagramE MajorE      A chord diagramE MajorE   Q     Q     S  S  A chord diagramE MajorE   A chord diagramE MajorE
--------5--7---L--10----12--|---L--12----10----------10------|
-----7-----7---L--------12--|---L--12----10----10-12-----12--|
----------------------------|----------------------------11--|
-----7-----5---L--------11--|---L---------9------------------|
-----5----------------------|----------------------------10--|
----------------------------|--------------------------------|

A chord diagramE MajorE  S S A chord diagramE MajorE  Q    S S A chord diagramE MajorE  A chord diagramE MajorE     A chord diagramE MajorE  S S A chord diagramE MajorE  Q     S  S  A chord diagramE MajorE   A chord diagramE MajorE
---------5-----------------|-----------------------10------|
-----5-7----7--------3-----|-----------------10-12-----12--|
------------6----2-4----4--|---------2-----------------11--|
------------------------4--|-----2-4----4------------------|
------------5--------------|------------2--------------10--|
------------------------3--|------------2------------------|

A chord diagramE MajorE  S S A chord diagramE MajorE  A chord diagramE MajorE  A chord diagramE MajorE  A chord diagramE MajorE  A chord diagramE MajorE  A chord diagramE MajorE     A chord diagramE MajorE  Q.     Q    A chord diagramE MajorE  A chord diagramE MajorE     Q    A chord diagramE MajorE  A chord diagramE MajorE  A chord diagramE MajorE  Q    A chord diagramE MajorE
---------5-----------------|-----------------------|------------------------|
-----5-7----7--------------|-----------------5-----|-------5--7--L--5-------|
------------6--------------|-----7------L-------7--|--6-------7--L-------7--|
------------------9--7--9--|-----7------L----------|--5------------------7--|
------------5--------------|-----------------------|------------------------|
---------------------------|-----------------------|--5-------6--L-------7--|

A chord diagramD MajorD
  A chord diagramE MajorE  Q     A chord diagramE MajorE   Q.      A chord diagramE MajorE      Q     A chord diagramE MajorE  Q    Q     A chord diagramE MajorE
--------------------------|------------9----7--------|
-----7----10---L----------|--------10--9---------10--|
--L--------9---L------12--|--11-------------------9--|
--L-----------------------|--12----------------------|
--------------------------|------------7----------9--|
--L--------9---L----------|--10----------------------|

A chord diagramA augmentedA
   A chord diagramE MajorE  Q     A chord diagramE MajorE   Q.      A chord diagramE MajorE      H         A chord diagramE MajorE   A chord diagramE MajorE   A chord diagramE MajorE   A chord diagramE MajorE
------9----12---L------10--|---9---------9--10--12--10--|
---L-------12---L----------|--10--------------------10--|
---L-----------------------|---9------------------------|
---------------------------|----------------------------|
---L-------11---L----------|---0--------10-----------9--|
---------------------------|----------------------------|

A chord diagramD6D6          A chord diagramA augmentedA
   A chord diagramE MajorE   Q    A chord diagramE MajorE  Q    A chord diagramE MajorE  A chord diagramE MajorE     Q.     A chord diagramE MajorE  H            A chord diagramE MajorE   A chord diagramE MajorE   A chord diagramE MajorE   Q     Q.
---L----------------------|--7------5--L--------|--10--10--10---9------------|
---L--10----7--L----------|--8------------------|--12--12--12--10----10------|
------------7--L----9--7--|---------------------|--------------------11------|
--------------------------|---------------------|----------------------------|
---L----------------------|---------0--L--------|---0------------------------|
------------7--L----------|---------------------|----------------------------|

B/G                       D/B             B/G       A chord diagramEsus2Esus2
  A chord diagramE MajorE  A chord diagramE MajorE  A chord diagramE MajorE  A chord diagramE MajorE   A chord diagramE MajorE  Q    A chord diagramE MajorE     A chord diagramE MajorE  Q    A chord diagramE MajorE   H           A chord diagramE MajorE   A chord diagramE MajorE  A chord diagramE MajorE  Q     Q    A chord diagramE MajorE
--------5--7---L----------|-----5-----------------|--------------------------|
-----7-----7---L--7----5--|--L-------7---L--------|--------------------------|
-----------------------6--|--L-------7---L--------|--4---4--4--4-----2----4--|
-----7-----5---L-------5--|--L-------7---L--------|--4---4--4--2-----2----4--|
-----5--------------------|-----------------------|--------------------------|
-----------------------6--|--L-------7---L--------|--3---------2-----2----3--|

A chord diagramD MajorD     B/G
  A chord diagramE MajorE  Q    Q    Q.        A chord diagramE MajorE  A chord diagramE MajorE  A chord diagramE MajorE  A chord diagramE MajorE   A chord diagramE MajorE   Q     A chord diagramE MajorE
----------------------|--------5--7---L--10----12--|
----------------------|-----7-----7---L--------12--|
--L--4----4----2------|----------------------------|
--L--4----2----2------|-----7-----5---L--------11--|
----------------------|-----5----------------------|
--L-------2----2------|----------------------------|

D/B
   A chord diagramE MajorE   Q     Q     S  S  A chord diagramE MajorE   A chord diagramE MajorE     A chord diagramE MajorE  S S A chord diagramE MajorE  Q    S S A chord diagramE MajorE  A chord diagramE MajorE
---L--12----10----------10------|---------5-----------------|
---L--12----10----10-12-----12--|-----5-7----7--------3-----|
----------------------------11--|------------6----2-4----4--|
---L---------9------------------|------------------------4--|
----------------------------10--|------------5--------------|
--------------------------------|------------------------3--|

A chord diagramE MajorE  S S A chord diagramE MajorE  Q     S  S  A chord diagramE MajorE   A chord diagramE MajorE     A chord diagramE MajorE  S S A chord diagramE MajorE  A chord diagramE MajorE  A chord diagramE MajorE  A chord diagramE MajorE  A chord diagramE MajorE  A chord diagramE MajorE
-----------------------10------|---------5-----------------|
-----------------10-12-----12--|-----5-7----7--------------|
---------2-----------------11--|------------6--------------|
-----2-4----4------------------|------------------9--7--9--|
------------2--------------10--|------------5--------------|
------------2------------------|---------------------------|

NH
  A chord diagramE MajorE    Q.     H
-----------------------||
-----7---------------||
-----7------L--------||
-----7------L--------||
-----------------------||
-----------------------||


Duration 🏷Legend
---------------
W - whole
H - half
Q - quarter
A chord diagramE MajorE - 8th
S - 16th
T - 32nd
X - 64th
. - note dotted
|-n-|  - n-tuplets

Tablature 🏷Legend
----------------
L - tied note
x - dead note
g - grace note
(n) - ghost note
> - accentuded note
NH - natural harmonic
AH - artificial harmonic
TH - tapped harmonic
SH - semi harmonic
PH - pitch harmonic
h - hammer on
p - pull off
b - bend
br - bendRelease
pb - preBend
pbr - preBendRelease
brb - bendReleaseBend
\n/ - tremolo bar dip
\n - tremolo bar dive
-/n - tremolo bar Release up
/n\ - tremolo bar inverted dip
/n - tremolo bar return
-\n - tremolo bar Release down
S - shift slide
s - legato slide
/ -  slide into from below or out of upwards
\ -  slide into from above or out of downwards
~ - vibrato
W - wide vibrato
tr - trill
TP - tremolo picking
T - tapping
S - slap
P - pop
< - fade in
^ - brush up
v - brush down

Almost there ...

Sign in to get your own page with links to favourite songs and more. You are just one click away...

Login with Facebook Login with Google