Log in

One click and you are in

Login with Facebook Login with Google

Why sign up and log in

Guitar Tabs Explorer
Metheny Pat tabs for Here to stay

Guitar tabs

Here is the chords and the TAB of "Here to stay" by Pat Metheny and some
explanation of the notation:
/ = slide up
\ = slide down

Song name: Here to stay
Artist name: Pat Metheny
-------------------------------------------------------------------------------
chords

||:Am7/9|%|%|%|%|%|%|%|A chord diagramFmaj7Fmaj7|E7/9+|D7/9 D7/9+|D7/4:||

|Am7/9|%|%|%|%|%|%|%|F#m7/9|%|%|%|
                                   _______ _____

solo                               |1     |2
||:Am7/9|%|%|%|%|%|%|%| A chord diagramFmaj7Fmaj7 | A chord diagramE7E7 |A chord diagramD7D7|%:||Dmaj7/9|%|

|Fm7/9|%|%|%|Dm7/9|%|%|%|Fm7/9|%|%|%|A chord diagramGsus4Gsus4|%|%|%|

|Am7/9|%|%|%|%|%|%|%|Fm7/9|%|%|%|Em7/D|Em7/9|A chord diagramFmaj7Fmaj7|A chord diagramGsus4Gsus4| e via così.
-------------------------------------------------------------------------------
Follow the TAB of chorus and the begin of solo.

-11/12--11/12--10/11\10------10------11/12----------10--9/10----------
-------------------------13------13---------10--13------------13--10--
----------------------------------------------------------------------
----------------------------------------------------------------------
----------------------------------------------------------------------
----------------------------------------------------------------------


-12-------11/12--10/11\10------10------15--11/12--10--9/10-------------
---------------------------13------13----------------------13----------
----9--9------------------------------------------------------14\12/14-
-----------------------------------------------------------------------
-----------------------------------------------------------------------
-----------------------------------------------------------------------

------------17---------------17----------------------------------------
-16/17--20-----20--16/17--20-------------------------------------------
-------------------------------------17--19/20\19--19\17--19--19\17-19-
-----------------------------------------------------------------------
-----------------------------------------------------------------------
-----------------------------------------------------------------------


---------------------------------------------17--------------16/17-----
-17-------------------------------16/17--20------20--17--20------------
----16/17--------------------------------------------------------------
-----------18/19--17---------------------------------------------------
----------------------19--17--15---------------------------------------
-----------------------------------------------------------------------


-----------------------------------------------------------------------
-----------------------------------------------------------------------
-----17--19/20\19--19\17--19--19\17--19--19\17--19--19\17--19--19\17-19
--19-------------------------------------------------------------------
-----------------------------------------------------------------------
-----------------------------------------------------------------------


-----------------------------------------------------------------------
-----------------------------------------------------------------------
--17-------------------------------------------------------------------
------19--17-----------------------------------------------------------
--------------19--17--17--15--15---------------------------------------
----------------------------------17-----------------------------------


solo


I frase
---------|--17---------------------------------------------------------
--17/20--|------20--17-----------------------------16/17---------------
---------|--------------20\19--17----------17--19----------------------
---------|-------------------------19--17------------------------------
---------|-------------------------------------------------------------
---------|-------------------------------------------------------------

II frase
-----------------------------------------------------------------------
-------------------------17--------------------------------------------
--17--18/19--17------19------18/19--16/17------------------------------
-----------------19------------------------18/19-----------------------
-----------------------------------------------------------------------
-----------------------------------------------------------------------

III frase
------------------------------------5-----7/8--------------------------
------------------------------5--8-----8-------------------------------
-------------5-----6/7--5--7-------------------------------------------
-------5--7-----7------------------------------------------------------
-5--7------------------------------------------------------------------
-----------------------------------------------------------------------

IV frase
-----------------------------17----------------------------------------
------------------16/17--20------20--17--------------------------------
----------17--19-------------------------19/20\19--17------------------
--17--19----------------------------------------------19--17-----------
-------------------------------------------------------------19--19-17-
-----------------------------------------------------------------------

etc.etc.

buon divertimento
happy playng
Omoboni L & A chord diagramA augmentedA
via G. Flechia 1/6
16166 GENOVA
Italy
E-mail:andreone@tn:village.it
tel.:010/3725235

Almost there ...

Sign in to get your own page with links to favourite songs and more. You are just one click away...

Login with Facebook Login with Google