Log in

One click and you are in

Login with Facebook Login with Google

Why sign up and log in

Guitar Tabs Explorer
Metheny Pat tabs for Bird and the bees

Guitar tabs

E----7-7-7-5--2-2-2-0-2-0---------0-0-0-2-0----------5---7-7-5-7-7-9-7-5-|
B-7--7--------3---------3-3-----3---------0-3-----5/7-7--7-----5-----7---|
G----7--------4---------4---4-4-----------0---4----------7-----4-----6---|
D----------------------------------------------------------------------7-|
A--------------------------------------------------------------4-----5---|
E----7--------3---------0---------2-------3--------------7---------------|

E----2-------------------------------------------------0-----------------|
B----0---------2---------------------------0-0-3---0-0----0-0-3-2--------|
G----2-----0-0--2-4-------------------4--4-------4-------4-------2-------|
D----0--2/4----4---------------0-2-2/4--------------------------2--------|
A----2------------2-------0-1/2------------------------------------------|
E-------0------3-----0-1/2---------------3-------0-------3------2--------|

E---0-----0----|
B---2--0--2--0-|
G---2--2--2--2-|
D---0--0--0--0-|
A--2-2---2-2---|
E-----2-2---2--|

E----7-7-5-7-7-5-7-5-2-----2------------------------2--------------------|
B-7--7-----5-----7---2----3--5-5-3-5-5-3-5-3-0----3---3---5-5-3-------3--|
G----7-----4-----6---4---4---4-4---3-4---2---0--4-4-----4-4-4---4-3---4--|
D----------------------------3-3---2-3---4---2----5-------3-3---2-4--4---|
A----------4-----5-----------4-4---4-4---2---2------------4-4---4-4-2----|
E----7---------------3---------3---2---------0----0---------3---2-2------|


E---0-----0--------------------------------------------------------------|
B---2--0--2--0-----------------------------------------------------------|
G---2--2--2--2-----------------------------------------------------------|
D---0--0--0--0---4-4-2-2-0-0---------------------------------------------|
A--2-2---2-2-----------------4-------------------------------------------|
E-----2-2---2------------------------------------------------------------|

E----7-7-5-7-7-5-7-5-2-----2------------------------2--------------------|
B-7--7-----5-----7---2----3--5-5-3-5-5-3-5-3-0----3---3---5-5-3-------3--|
G----7-----4-----6---4---4---4-4---3-4---2---0--4-4-----4-4-4---4-3---4--|
D----------------------------3-3---2-3---4---2----5-------3-3---2-4--4---|
A----------4-----5-----------4-4---4-4---2---2------------4-4---4-4-2----|
E----7---------------3---------3---2---------0----0---------3---2-2------|

E-3-3-3-2--------------7--10-12--10--7--10/12-10------5--7--5---5/7-5----|
B-5-----2--------------7--10-12--10--7--10/12-10---7--5--7--5-7-5/7-5-7--|
G-4-----3------------------------------------------7----------7-------7--|
D-------4----------------------------------------------------------------|
A-------4-------2--------------------------------------------------------|
E-0-----2--2--2---2-1-0-0---0---0-------0-------0-7--7--7--7----7--------|


E--7--10-12--10--7--10/12-10----3-3-3-3-2-2-2-2-2-2-3-3-4-4-5------------|
B--7--10-12--10--7--10/12-10----6-------5--------------------------------|
G-------------------------------4-------3--------------------------------|
D-------------------------------3-------2-------4---2---0----------------|

Almost there ...

Sign in to get your own page with links to favourite songs and more. You are just one click away...

Login with Facebook Login with Google